Rebelution - Bright Side Of Life tab

Bright Side of Life
By:  Rebelution
Tab By: ChristianH

h = hammer on
p = pull off
^ = bend
r = return from bend
~ = hold note
/ = slide

E------------------------------------------------------------------------------------|
B------------------------------------------------------------------------------------|
G-------------7~~~~~----------10--12^12^12^12^r10------------------------------------|
D-------7--7-----------10h12---------------------12~~~~~-----------------------------|
A------------------------------------------------------------------------------------|
e------------------------------------------------------------------------------------|



E-------13-12------------------------------------------------------------------------|
B--------------13-10-----------------------------------------------------------------|
G---------------------12-10--12--10-12^r-10-12~~~~~----------------------------------|
D------------------------------------------------------------------------------------|
A------------------------------------------------------------------------------------|
e------------------------------------------------------------------------------------|



E------------------------------------------13p12-10-9-9/10~~~---13-13h15p13-12-------|
B-----------------------------------10-13--------------------------------------------|
G-------------------------10-12-13---------------------------------------------------|
D---------------10-11-12-------------------------------------------------------------|
A-----10-11-12-----------------------------------------------------------------------|
e------------------------------------------------------------------------------------|
Tap to rate this tab
 
# A B C D E F G H I J K L M N O P Q R S T U V W X Y Z