Song name
# A B C D E F G H I J K L M N O P Q R S T U V W X Y Z

Rebelution - Route Around tab

-----------------------------------------------------------------
Route Around- Rebelution
-----------------------------------------------------------------
Tabbed by: Brian Zucker
Email: bnzucker@comcast.net
Tuning: Standard
Intro
   A              F#m        G#m       C#m
e|-----------------------0-----------------4-4-------------------|
B|-------2------------0h2------------------5-5-------------------|
G|--------2----------------------4---------6-6-------------------|
D|-----2-----------------------------------6-6-------------------|
A|--0----------------------------------4---4-4-----0-------------|
E|------------5-4-2----------4-----------------4-----------------|
   A              F#m        G#m       C#m    D-E
e|-----------------------0-----------------4--5s7----------------|
B|-------2------------0h2------------------5--7s9----------------|
G|--------2----------------------4---------6--7s9----------------|*Play this for
D|-----2-----------------------------------6---------------------|the rest of the 
A|--0----------------------------------4---4---------------------|time
E|------------5-4-2----------4-----------------------------------|
    A     F#m    G#m    C#m
e|--5------2------4------4---------------------------------------|
B|--5------2------4------5---------------------------------------|
G|--6------2------4------6---------------------------------------|*chords when drum 
D|--7------4------6------6---------------------------------------|kicks in
A|--7------4------6------4---------------------------------------|
E|--5------2------4------x---------------------------------------|

| s  slide 
| h  hammer-on
| p  pull-off
| ~  vibrato
| +  harmonic
| x  Mute note
Tap to rate this tab
 
# A B C D E F G H I J K L M N O P Q R S T U V W X Y Z