Song name
# A B C D E F G H I J K L M N O P Q R S T U V W X Y Z

Rebelution - Life On The Line tab

-----------------------------------------------------------------
Life of the Line - Rebelution
-----------------------------------------------------------------
Tabbed by: Brian Zucker
Email: bnzucker@comcast.net
Tuning: Standard
intro/bridge riff
e|---5--4--2--0--7--5--4--0--2-----------------------------------|
B|---------------------------------------------------------------|
G|---------------------------------------------------------------|
D|---------------------------------------------------------------|
A|---------------------------------------------------------------|
E|---------------------------------------------------------------|

riff during the chorus

e|------9-7-5---5-7-5-7-5-7-5-7-9--------------------------------|
B|----7----------------------------------------------------------|
G|---------------------------------------------------------------|
D|---------------------------------------------------------------|
A|---------------------------------------------------------------|
E|---------------------------------------------------------------|

riff during the verse

e|------9-7-5---5-7-5-7-5-7-5-7----------------------------------|
B|----7----------------------------------------------------------|
G|---------------------------------------------------------------|
D|---------------------------------------------------------------|
A|---------------------------------------------------------------|
E|---------------------------------------------------------------|

chords
    F#m        Bm  C#m
e|----2----2----2----4-------------------------------------------|
B|----2----2----3----5-------------------------------------------|
G|----2----2----4----6-------------------------------------------|
D|----4----4----4----6-------------------------------------------|
A|----4----4----2----4-------------------------------------------|
E|----2----2----x----x-------------------------------------------|

| /  slide up
| \  slide down
| h  hammer-on
| p  pull-off
| ~  vibrato
| +  harmonic
| x  Mute note
Tap to rate this tab
 
# A B C D E F G H I J K L M N O P Q R S T U V W X Y Z