Song name
# A B C D E F G H I J K L M N O P Q R S T U V W X Y Z

Rebelution - Honeypot tab

-----------------------------------------------------------------
Honeypot - Rebelution
-----------------------------------------------------------------
Tabbed by: Brian Zucker
Email: bnzucker@cocmast.net
Tuning: Standard
Bass riff (chorus/verse)
e|---------------------------------------------------------------|
B|---------------------------------------------------------------|
G|---------------------------------------------------------------|
D|--*--*-*--*-*****--------*----------*-*------------------------|
A|--4--7-4--6-77777*---*-*-7-*---*--*-7-6------------------------|
E|-----------------7---5-5---5---7--7----------------------------|

(piano part for chorus)

e|---------------------------------------------------------------|
B|---------------------------------------------------------------|
G|----------4----2-----------------------------------------------|
D|---6-4---------------1----2------------------------------------|
A|-------7-------------------------------------------------------|
E|---------------------------------------------------------------|

chords (chorus/verse)
    C#m      E       A       B  G#m
e|---4---4---7---7---5---5---7---4-------------------------------|
B|---5---5---9---9---5---5---7---4-------------------------------|
G|---6---6---9---9---6---6---8---4-------------------------------|
D|---6---6---9---9---7---7---9---6-------------------------------|
A|---4---4---7---7---7---7---9---6-------------------------------|
E|---x---x---x---x---5---5---7---4-------------------------------|

Bass riff (bridge)

e|-----------------------------------------------------------------|
B|-----------------------------------------------------------------|
G|-----------------------------------------------------------------|
D|-------****------*-*----------****------*-*----------------------|
A|-----*-7777-*--*-7-7-*--*---*-9999-*--*-9-9-*--------------------|
E|-----5------5--5-----5--7---7------7--7-----7--------------------|

Chords (bridge)
     A               B                    G#m
e|---5---5---5---5---7---7---7--(7)-------(4)--------------------|2nd time through
B|---5---5---5---5---7---7---7--(7)-------(4)--------------------|use G#m in place
G|---6---6---6---6---8---8---8--(8)-------(4)--------------------|of last B
D|---7---7---7---7---9---9---9--(9)-------(6)--------------------|
A|---7---7---7---7---9---9---9--(9)-------(6)--------------------|
E|---5---5---5---5---7---7---7--(7)-------(4)--------------------|

| /  slide up
| \  slide down
| *  palm mute
Tap to rate this tab
# A B C D E F G H I J K L M N O P Q R S T U V W X Y Z