Song name
# A B C D E F G H I J K L M N O P Q R S T U V W X Y Z

Rebelution - Closer I Get Acoustic tab

-------------------------------------------------------------------------------
			Closer I get (Acoustic)  Rebelution    ~Peace of Mind~
-------------------------------------------------------------------------------
INTRO

Tabbed by:  Robert Ueda, Connor Barclay

Email: Conbar77@live.com

Tuning: Standard
         Fm                            Bbm       Cm
E|-------1-------------------------------------1-------3-3-3-3----------------|
B|-------1-------------------------------------2-------4-4-4-4----------------|
G|-------1-------------------------------------3-------5-5-5-5----------------|
D|-------3-------------------------------------3-------5-5-5-5----------------|
A|-------3---------------1x--2x--3x--1x---1-------3-3-3-3---------------------|
E|---1x-1--1x--3x--4x---------------------1-------3-3-3-3---------------------|

XX-MUTED-XX




Second Guitar ( Enter after first riff x2) play twice

E|------------------------------------------------------------|
B|------------------------------------------------------------|
G|--------1-3/5---5\3--1--3-3-----1--3/5--5--3-1----1---------|
D|---1-3------------------------------------------3---3-------|
A|------------------------------------------------------------|
E|------------------------------------------------------------|



************************************

| /   slide up
| \   slide down
| h   hammer-on
| p   pull-off
| ~   vibrato
| +   harmonic
| x   Mute note
| b   Bend
| pb  Pre-bend
| br  Bend release
| pbr Pre-bend release
| brb Bend release bend

************************************
Tap to rate this tab
# A B C D E F G H I J K L M N O P Q R S T U V W X Y Z