Song name
# A B C D E F G H I J K L M N O P Q R S T U V W X Y Z

Rebelution - Route Around tab

        Route Around - Rebelution

Tabbed by: Nolan
Email: saticoyllnolanb@yahoo.com

Tuning: standard

This is the solo to Route Around off Rebís new album Peace of Mind. Iím pretty darn sure
this is spot on accurate! Enjoy☺

e|--------------------0--------------------------------------------------|
B|-----2-----------------------------------------------------------------|
G|-------2--------0h2------4---------------9-11/13-11---9-11/13-11-------|
D|----2----2-----------------------4-6/11--------------------------------|
A|--0--------2-----------------4/7---------------------------------------|
E|-------------2---------4-----------------------------------------------|

e|---------------------14h16p--17-16-14-12-----------------------------|
B|--------------14h16p--------------------12-10-12-10------------------|
G|--9-11/13-9-----------------------------------------13/11-----9------|
D|---------------------------------------------------------9h11--------|
A|---------------------------------------------------------------------|
E|---------------------------------------------------------------------|

e|--------------------------------------------------------|
B|--------------------------------------------------------|
G|--------------------------------------------------------|  Palm muted
D|--------------------------------------------------------|double picking on most
A|--------------------------------------------------------| of the notes
E|--7--9--12--14--17-16--14--16--14--12--9--12------------|

e|------------------------------12-11----------------------------------|
B|----------------14-12-9-------------12-9-----------------------------|
G|---9h11pó11/13----------11-9-------------11/9------------------------|
D|---------------------------------------------------------------------|
A|---------------------------------------------------------------------|
E|---------------------------------------------------------------------|
Tap to rate this tab
# A B C D E F G H I J K L M N O P Q R S T U V W X Y Z