Song name
# A B C D E F G H I J K L M N O P Q R S T U V W X Y Z

Rebelution - Honeypot Acoustic tab

-----------------------------------------------------------------
Honeypot (Acoustic)  Rebelution
-----------------------------------------------------------------
Tabbed by: Brian Zucker
Email: bnzucker@comcast.net
Tuning: Standard
Intro
    Cm     D#            G#
e|-----3----6----------------4-----------------------------------|
B|-----4----8----------------4-----------------------------------|
G|--5--5----8----------------5-----------------------------------|
D|--5--5----8---8----8----6--6-------5---6p5-3-------------------|
A|--3--3----6---8h10-8----6--6-----6---6-------------------------|
E|-----x----x-------------4--4-----------------------------------|
Chords
   Cm    D#    G#        Gm*
e|--3-----6-----4---------3--------------------------------------|* the Gm is
B|--4-----8-----4---------3--------------------------------------|played on the
G|--5-----8-----5---------3--------------------------------------|very last part
D|--5-----8-----6---------5--------------------------------------|of the
A|--3-----6-----6---------5--------------------------------------|progression
E|--x-----x-----4---------3--------------------------------------|
Bridge
   G#      A#         Gm*
e|--4-------6----------3-----------------------------------------|* Gm played on
B|--4-------6----------3-----------------------------------------|4th time thru
G|--5-------7----------3-----------------------------------------|at very end
D|--6-------8----------5-----------------------------------------|
A|--6-------8----------5-----------------------------------------|
E|--4-------6----------3-----------------------------------------|

I found it sounds better if you play the chords really close to the bridge to get that 
twangy sound Eric gets on his guitar.

| /  slide up
| \  slide down
| h  hammer-on
| p  pull-off
| ~  vibrato
| +  harmonic
| x  Mute note
Tap to rate this tab
# A B C D E F G H I J K L M N O P Q R S T U V W X Y Z