Song name
# A B C D E F G H I J K L M N O P Q R S T U V W X Y Z

Rebelution - Closer I Get tab

Rebelution _____ Closer I Get
Tabed by Elijah And SWAG monster nar nar nar 

Intro:

E|----------------------|
A|----------------------|
D|--7/9-----------------|
G|------6--7--9--7--6--4|
B|----------------------|
e|----------------------|

Chords:

Fm A#m Cm
E|-1----1----3----|
B|-1----2----4----|
G|-1----3----5----|
D|-3----3----5----|
A|-3----1----3----|
E|-1----1----3----|

Bridge:

C# G# Cm Fm
E|-4---4---3---1--|
B|-6---4---4---1--|
G|-6---5---5---1--|
D|-6---6---5---3--|
A|-4---6---3---3--|
E|-----4---3---1--|
Tap to rate this tab
 
# A B C D E F G H I J K L M N O P Q R S T U V W X Y Z