Song name
# A B C D E F G H I J K L M N O P Q R S T U V W X Y Z

Rebelution - Calling Me Out Acoustic tab

------------------------------------------------------------------------------
Calling Me Out (Acoustic) - Rebelution
-------------------------------------------------------------------------------
Tabbed by: Peter Chrisafides    
E-mail: peterchrisafides@comcast.net

Tuning:EADGBe

        This is one of the first rifts shown
e|--6--6--5--3-------------3--5-----------|
B|---------------6--3--6----------6-------|
G|----------------------------------------|
D|----------------------------------------|
A|----------------------------------------|
E|----------------------------------------|

        This is another rift that gets played.
e|--6--6--3--5-------5--5--3------------------|
B|---------------6------------6---------------|
G|--------------------------------7-----------|
D|--------------------------------------------|
A|--------------------------------------------|
E|--------------------------------------------|

        These are the Bar Chords played from begining
e|--5--5--5--5--5--3---5---------3--3--3--3--3--1--3------------------------|
B|--6--6--6--6--6--4---6---------4--4--4--4--4--2--4------------------------|
G|--7--7--7--7--7--5---7---------5--5--5--5--5--3--5------------------------|
D|--7--7--7--7--7--5---7---------5--5--5--5--5--3--5------------------------|
A|--5--5--5--5--5--3---5---------3--3--3--3--3--1--3------------------------|
E|--------------------------------------------------------------------------|

        Guitar 2 switches off between these chords
e|--5----3------------------------------------------------------------------|
B|--6----4------------------------------------------------------------------|
G|--7----5------------------------------------------------------------------|
D|--7----5------------------------------------------------------------------|
A|--5----3------------------------------------------------------------------|
E|--------------------------------------------------------------------------|


************************************
| /   slide up
| \   slide down
| h   hammer-on
| p   pull-off
| ~   vibrato
| +   harmonic
| x   Mute note
| b   Bend
| pb  Pre-bend
| br  Bend release
| pbr Pre-bend release
| brb Bend release bend
************************************
Tap to rate this tab
 
# A B C D E F G H I J K L M N O P Q R S T U V W X Y Z