Song name
# A B C D E F G H I J K L M N O P Q R S T U V W X Y Z

Rebelution - Honeypot tab

-----------------------------------------------------------------------------
                             Honeypot - Rebelution
-----------------------------------------------------------------------------
Tabbed by: Jbaker

palm muted, listen to the song for the rhythm
Enjoy!

Intro:

e|---------------------------------------------------------------------------|
B|---------------------------------------------------------------------------|
G|---------------------------------------------------------------------------|
D|--------6---------------6----------------7---------------6-----------------|
A|---4------7-4-----6-777---7----------------7------------------6------------|
E|----------------------------7-----------5----5--------7----7---------------|

Piano part:

e|---------------------------------------------------------------------------|
B|---------------------------------------------------------------------------|
G|------------4----2---------------------------------------------------------|
D|---6--4--2------------1--2-------------------------------------------------|
A|---------------------------------------------------------------------------|
E|---------------------------------------------------------------------------|


Hope this helped!!
Tap to rate this tab
# A B C D E F G H I J K L M N O P Q R S T U V W X Y Z