Song name
# A B C D E F G H I J K L M N O P Q R S T U V W X Y Z

Rebelution - Route Around tab

Rebelution
"Route Around"
Peace of Mind (2012)
Key of A Major
(sounds great down 3 halfsteps @ GbM)


Chords
A     F#m    G#m    C#m
5--------2--------4--------4------------|
5--------2--------4--------5------------|
6--------2--------4--------6------------|
7--------4--------6--------6------------|
7--------4--------6--------4------------|
5--------2--------4--------x--7-4-------|


try leaving the high e string open on the chords
sounds nice, adds a bit of contrast b/w verse and chorus



Intro
----------------------------0~~----------------------|
----------2---------------------------------5-5~~----|
-------------2----------1h2---------4~~-----6--------|
-------2------------------------------------6-6~~----|
-0~~-----------0------------------------4------------|
-----------------4-2~~-----------4~~----------7p4----|

----------------------------0~~-----------------------|
----------2---------------------------------5--7-7/9~~|
-------------2----------1h2---------4~~-----6--8-8/9~~|
-------2------------------------------------6---------|
0~~------------0------------------------4-------------|
-----------------4-2~~-----------4~~------------------|


Verse 1
(Repeat intro x2)

Lately I try to fall asleep but I struggle
I tell you you're the missing piece to my puzzle
4 am has got me more or less troubled
ooohhh what I would do with my lover and
all day, I share the memories
in sound waves, across the country to where
you lay, right on you side
no need to feel alone, not tonight because

Chorus x2
(Still playing intro lick)

We can try to find a route around    (a route around)
All my troubles fading out now
Time to pick it up now
Things are picking up now

Verse 2
(use the chords)

Some people say to fight for everything you  want
But all I need is food, water, air and love
And share the four things we love so very much
And show the world that less is enough because
Always, We'll stay grounded
in our own way
Control the tempo to where
We sway, right by my side
No need to feel alone
Not in life because

Chorus x2

Solo

Chorus x2

Outro



Despite using this website for a decade, this is the first tab I have ever contributed.
Spent a while on ableton slowing down the parts to get it all just right.
It's all good except the solo, sorry gotta get back to studying don't have time for that 
right now.
Hope everybody enjoys this dope song, and remember to 'share the four things we love so 
very much'
Tap to rate this tab
# A B C D E F G H I J K L M N O P Q R S T U V W X Y Z