Song name
# A B C D E F G H I J K L M N O P Q R S T U V W X Y Z

Rebelution - Heart Like A Lion tab

You know the drill - ~'s for vibrato, "h" for hammer-on, et cetera.

Intro Dist. Guitar - Played Twice
E|---------------------------------------------------|
B|--------------------------------------3--3--5--5~--|
G|--------------------2--2--4--4--5--5---------------|
D|--2--2--4--4--5--5---------------------------------|
A|---------------------------------------------------|
E|---------------------------------------------------|

Main Dist. Riff - alternated with variation
E|-------------------------------------------------------|
B|-------------------------------------------------------|
G|-------------------------------------------------------|
D|----------------0-------0-------------2-------------2--|
A|-----------0h2-----0h2-----0--0--2/3-----0--0--2/3-----|
E|--0--0--3----------------------------------------------|

Main Dist. Riff Variation. Figure out when to play it yourself, it's easy.
E|----------------------------------------------------|
B|----------------------------------------------------|
G|----------------------------------------------------|
D|----------------0-------0--------2--2--------2--2v--|
A|-----------0h2-----0h2-----0--0--------0--0---------|
E|--0--0--3-------------------------------------------|

Chords - Played by rhythm guitar on offbeat
E|--3---3---2---2---5---5---5---5---|
B|--3---3---3---3---5---5---5---5---|
G|--4---4---2---2---5---5---5---5---|
D|----------------------------------|
A|----------------------------------|
E|----------------------------------|

Pre-Chorus Riff
E|----------------------|
B|----------------------|
G|----------------------|
D|------------------0~--|
A|--2~--3~--2~--3~------|
E|----------------------|

SOLO - played with Wah
E|--10------7-----10------3-----10------7-----10------3-----|
B|------10-----5------10-----5------10-----5------10-----5--|
G|----------------------------------------------------------|
D|----------------------------------------------------------|
A|----------------------------------------------------------|
E|----------------------------------------------------------|

Ending Dist. Riff
E|-----3-----2--------------|
B|-----------------1-----1--|
G|--4-----2-----2-----2-----|
D|--------------------------|
A|--------------------------|
E|--------------------------|

Tabbed by FishFloyd - All song credits go where they're due, and whatnot. I obviously 
didn't write the song.

Enjoy!
Tap to rate this tab
# A B C D E F G H I J K L M N O P Q R S T U V W X Y Z