Song name
# A B C D E F G H I J K L M N O P Q R S T U V W X Y Z

Rebelution - Life On The Line Acoustic tab

-----------------------------------------------------------------
Life on the Line (Acoustic) -Rebelution
-----------------------------------------------------------------
Tabbed by: Chad Bell
Tuning: Standard

Intro/Bridge riff
e|---4-------------6--4------------------------------------------|
B|------8--6--4----------8--4------------------------------------|
G|---------------------------------------------------------------|
D|---------------------------------------------------------------|
A|---------------------------------------------------------------|
E|---------------------------------------------------------------|

Chorus Riff

e|---8-----8--6--4---4--6-6--4--6-6--4--6-6--4--6-6--------------|
B|------6--------------------------------------------------------|
G|---------------------------------------------------------------|
D|---------------------------------------------------------------|
A|---------------------------------------------------------------|
E|---------------------------------------------------------------|


chords
            
e|----1----1----1----3-------------------------------------------|
B|----1----1----2----4-------------------------------------------|
G|----1----1----3----5-------------------------------------------|
D|----3----3----3----5-------------------------------------------|
A|----3----3----1----3-------------------------------------------|
E|----1----1----x----x-------------------------------------------|

| /  slide up
| \  slide down
| h  hammer-on
| p  pull-off
| ~  vibrato
| +  harmonic
| x  Mute note
Tap to rate this tab
# A B C D E F G H I J K L M N O P Q R S T U V W X Y Z