Song name
# A B C D E F G H I J K L M N O P Q R S T U V W X Y Z

Rebelution - Honeypot tab

-----------------------------------------------------------------------------
			     Honeypot - Rebelution
-----------------------------------------------------------------------------
Tabbed by:RehiQQ

Saw a tab for honeypot and the bass Part didn't sound really good.
Dont forget to palm mute!
Enjoy

Tuning: STANDARD

Main Bass
e|---------------------------------------------------------------------------|
B|---------------------------------------------------------------------------|
G|---------------------------------------------------------------------------|
D|---------6-----------------6------------6----------------------------------|
A|---4--------7-4-----6-777----7------------7----------9--7---6--------------|
E|-------------------------------7-----5------5------7--7--------------------|

Bridge Bass
e|---------------------------------------------------------------------------|
B|---------------------------------------------------------------------------|
G|---------------------------------------------------------------------------|
D|---------------------------------------------------------------------------|
A|-----------7777-----7--7--------------------9999-----9--9------------------|
E|---5------------5--5----5----------7-------------7--7----7-----------------|
Tap to rate this tab
 
# A B C D E F G H I J K L M N O P Q R S T U V W X Y Z