Song name
# A B C D E F G H I J K L M N O P Q R S T U V W X Y Z

Reckless Kelly - Nobodys Girl tab

Took me a while to figure this one out so I hope you all like it. The 
other one is good but I think this one is a bit closer.

Standard Tuning, No Capo

Intro: A-E-F#m-D 3X

Intro: 1

e|-xx-0-|-xxxx-0-0-0-xxxx-0-0-2-xxxx-2-2-2-xxxx-2-2-0-|
B|-xx-2-|-xxxx-2-2-0-xxxx-0-0-2-xxxx-2-2-3-xxxx-3-3-2-|
G|-xx-2-|-xxxx-2-2-1-xxxx-1-1-2-xxxx-2-2-2-xxxx-2-2-2-|
D|-xx-2-|-xxxx-2-2-2-xxxx-2-2-4-xxxx-4-4-0-xxxx-0-0-2-|
A|-xx-0-|-xxxx-0-0-2-xxxx-2-2-4-xxxx-4-4---xxxx-----0-|
E|-xx---|-xxxx-----0-xxxx-0-0-2-xxxx-2-2---xxxx-------| x2

(just play the chords the third time)

Intro 2 (play after first time through intro 1)

e|---------------------------------------|
B|---------------------------------------|
G|---------------------------------------|
D|---------------------------------------|
A|-0-0-2-4-4-2-2-0-0h2h4h5-5-4-5-2-0---0-|
E|-----------------------------------4---|  x2


A                    E
First man that you ever loved
F#m                    D
Left your mama, never said goodbye to anyone
A                          E 
You were raised with your head held high
      F#m                         D
But any fool can see its just a clever disguise

Chorus:

A              E
Youre nobodys baby
F#m             D
Youre nobodys darlin 
A   E          F#m       D
Youre nobodys girl


A                            E                   F#m
Youve always been a little scared to open your heart
                     D                 A
And you never let anybody take it too far
                E
You never let em on the inside 
F#m                                   D 
Cause youre always scared of getting taken for a ride

Chorus:

A              E
Youre nobodys baby
F#m             D
Youre nobodys darlin 
A  E           F#m       D
Youre nobodys girl

e|-----------------------------------------------------------------------|
B|-----------------------------------------------------------------------|
G|-14-14/13-13/11-11/9-9/7-7/6-6/4-4/2--14/13-13/11-11/9-9/11-9/11/9p7h9-|
D|-----------------------------------------------------------------------|
A|-----------------------------------------------------------------------|
E|-----------------------------------------------------------------------|

e|----------------------------------------------|
B|----------------------------------------------|
G|-9p7-6h7-7-7/6-4p2/1/2--2h4-6/7-7p6-7-4-2/1/2-|
D|----------------------------------------------|
A|----------------------------------------------|
E|----------------------------------------------|


A                              E
Every body wants you but you dont wanna care 
F#m                                     D
So you keep em at a distance with the frown you wear
A                        E
Spend your time tryin to even the score
F#m                                  D
And youve got it in your head you deserve a lot more 

BRIDGE 
A                E
First one was a total disaster
F#m                   D
so was the second one and everyone after
A                             E
but when your break in in a broken home 
F#m                                 D
youre gonna be sure to spend some nights on your own

Chorus:

 A                  E
When youre nobodys baby
F#m            D
Youre nobodys darlin 
A  E           F#m       D
Youre nobodys girl
A               E
Youre nobodys baby
F#m            D
Youre nobodys darlin 
A  E           F#m       D
Youre nobodys girl
                A        
Youre nobodys girl

OUTRO: same as second two times of intro

any questions or comments, email me at hulanic@gmail.com

Tap to rate this tab
 
# A B C D E F G H I J K L M N O P Q R S T U V W X Y Z