Song name
# A B C D E F G H I J K L M N O P Q R S T U V W X Y Z

Reckless Love - Beautiful Bomb tab

---------------------------------------------------------------------------
			     Beautiful Bomb - Reckless Love
---------------------------------------------------------------------------

Tabbed by:S MANN
Email:sean_mann@live.com

Tuning:Eb,Ab,Db,Gb,Bb,eb.

Start with the bar held down and pluck the string. Quickly hammer on the 3rd fret 
natural harmonic and bend the bar when needed.

eb|---------|
Bb|---------|
Gb|-0h3*----|
Db|---------|
Ab|---------|
Eb|---------|

Verse 1

eb|-------------------------------------------|
Bb|------------------8--------------------7---|
Gb|------------------7--------------------7---|        
Db|-7-7--7-7--7-7--7-----5-5--5-5--5-5--5-----|
Ab|-7-7--7-7--7-7--7-----5-5--5-5--5-5--5-----|
Eb|-5-5--5-5--5-5--5-----3-3--3-3--3-3--3-----|

eb|------------------------------------------|
Bb|------------------8-----------------------|
Gb|------------------7-----------------------|        
Db|-7-7--7-7--7-7--7-----5-5--5-5--5-5--5-7--|
Ab|-7-7--7-7--7-7--7-----5-5--5-5--5-5--5-7--|
Eb|-5-5--5-5--5-5--5-----3-3--3-3--3-3--3-5--|

Pre-Chorus

eb|------------------------------|
Bb|----------------5-------------|
Gb|-4-4------------------7-----7-|
Db|-4-4----7----7-----7-----7----|
Ab|-2-2----7---------------------|
Eb|--------5---------------------|

eb|---------------------------------------------------------------|
Bb|----------------------7-----5----------------------------------|
Gb|-4-4------------7----------------------------------------------|
Db|-4-4----5----7-----7-----7------7-7-7-7-7-7-7-7-7-7-7-7-7-7----|
Ab|-2-2----5-----------------------7-7-7-7-7-7-7-7-7-7-7-7-7-7----|
Eb|--------3-----------------------5-5-5-5-5-5-5-5-5-5-5-5-5-5----|

Chorus 1
eb|----------------------------------------------------------------------|
Bb|----------------------------------------------------------------------|
Gb|-7-7-7--2-2-2--4-4-4--------------------------------------------------|
Db|-7-7-7--2-2-2--4-4-4--5-5-5--7----------------------------------------|2x
Ab|-5-5-5--0-0-0--2-2-2--5-5-5--7-0-10/12-0-10/12-0--0-0-10/12-0-10/12-0-|
Eb|----------------------3-3-3--5----------------------------------------|

eb|-----------------------------------------------------|
Bb|-----------------------------------------------------|
Gb|-----------------------------------------------------|
Db|-5-5--5-5-5--7-7-7--7-7-7--5-5--5-5-5--7-7-7--7-7-7--|
Ab|-5-5--5-5-5--7-7-7--7-7-7--5-5--5-5-5--7-7-7--7-7-7--|
Eb|-3-3--3-3-3--5-5-5--5-5-5--3-3--3-3-3--5-5-5--5-5-5--|

eb|-----------------|
Bb|-----------------|
Gb|-7-----2---------|
Db|-7-----2-----5---|
Ab|-5-----0-----5---|
Eb|-------------3---|

Verse 2
                                                      ~
eb|---5---5-5---5---5------3---3------------------15-17-| hold the note
Bb|---5---5-5---5---5------3---3------------14-15-------|
Gb|--------------------------------------14-------------|
Db|-----------------------------------14----------------|
Ab|-7---7-----7---7------5---5-----12-------------------|
Eb|-5---5-----5---5------3---3--------------------------|
                                        Into Pre-Chorus       Slowly bend up
eb|-14b(15)-14p12h14--12-12b(14)b12p10--10--------12b(14)--12---12b--|
Bb|------------------------------------------------------------------|
Gb|------------------------------------------------------------------|
Db|------------------------------------------------------------------|
Ab|------------------------------------------------------------------|
Eb|------------------------------------------------------------------|

   "She looks hot"
eb|-(12)b10--10h12-12--10h12p10h12p10h2p10h12p10h12p10h12--17--|
Bb|------------------------------------------------------------|
Gb|------------------------------------------------------------|
Db|------------------------------------------------------------|
Ab|------------------------------------------------------------|
Eb|------------------------------------------------------------|

Chorus 2

eb|----------------------------------------------------------------------|
Bb|----------------------------------------------------------------------|
Gb|-7-7-7--2-2-2--4-4-4--------------------------------------------------|
Db|-7-7-7--2-2-2--4-4-4--5-5-5--7----------------------------------------|2x
Ab|-5-5-5--0-0-0--2-2-2--5-5-5--7-0-10/12-0-10/12-0--0-0-10/12-0-10/12-0-|
Eb|----------------------3-3-3--5----------------------------------------|

eb|-----------------------------------------------------|
Bb|-----------------------------------------------------|
Gb|-----------------------------------------------------|
Db|-5-5--5-5-5--7-7-7--7-7-7--5-5--5-5-5--7-7-7--7-7-7--|
Ab|-5-5--5-5-5--7-7-7--7-7-7--5-5--5-5-5--7-7-7--7-7-7--|
Eb|-3-3--3-3-3--5-5-5--5-5-5--3-3--3-3-3--5-5-5--5-5-5--|

eb|-----------------|
Bb|-----------------|
Gb|-7-----2---------|
Db|-7-----2-----5---|
Ab|-5-----0-----5---|
Eb|-------------3---|

Solo bit

Guitar 1

eb|-10b(12)-10--------------------------------------|
Bb|-------------12------7b(8)-7p5---5-7-5-7p5-------|
Gb|-------------------------------7-----------7-----|
Db|-------------------------------------------------|
Ab|-------------------------------------------------|
Eb|-------------------------------------------------|

Guitar 2
eb|-------------------------------------------------|
Bb|-10b(12)-10--------------------------------------|
Gb|-------------12------9b(10)-9p7---7-9-7-9p7------|
Db|--------------------------------7-----------7----|
Ab|-------------------------------------------------|
Eb|-------------------------------------------------|

Just Guitar 1
                                         Hold bend 
eb|-------------------------8--10----------------15--|
Bb|--------------------------------------15b(17)-----|
Gb|-------------------7h9----------------------------|
Db|--------------------------------------------------|
Ab|----------0--5h7----------------------------------|
Eb|-0--1--3------------------------------------------|

Guitar 1

eb|----------------------------------------------17-19--|
Bb|----------------------------------------17-19--------|
Gb|-6--7--9--11--12--14--16--18---16-18-19--------------|
Db|-----------------------------------------------------|
Ab|-----------------------------------------------------|
Eb|-----------------------------------------------------|

Guitar 2

eb|-------------------------------|
Bb|-------------------------------|
Gb|-------------------------------|
Db|-7--9--10--12--14--16--17--19--|
Ab|-------------------------------|
Eb|-------------------------------|

Bridge

eb|---0------0------0------0-----------0-----------0-0-----|
Bb|-----3------3------3------3-------3---3-------------3---|
Gb|--------------------------------2-------2----2--------2-|
Db|-0------------------------------------------------------|
Ab|--------0------2-------------0-------------0------------|
Eb|----------------------3---------------------------------|

eb|---0------0------0------0-----------0-----0---|
Bb|-----3------3------3------3-------3---3-------|
Gb|--------------------------------2-------2-----|
Db|-0--------------------------------------------|
Ab|--------0------2-------------0----------------|
Eb|----------------------3-----------------------|

Build Up

eb|-----------------------------------------------------------------|
Bb|-----------------------------------------------------------------|
Gb|-----------------------------------------------------------------|
Db|-5-5-5-5-5-5-5-5-7-7-7-7-7-7-7-7-8-8-8-8-8-8-8-8-10-10-10-10-10--|
Ab|-5-5-5-5-5-5-5-5-7-7-7-7-7-7-7-7-8-8-8-8-8-8-8-8-10-10-10-10-10--|
Eb|-3-3-3-3-3-3-3-3-5-5-5-5-5-5-5-5-6-6-6-6-6-6-6-6-8--8--8--8--8---|

Last Chorus

eb|-------------------------------------------------------------|
Bb|-------------------------------------------------------------|
Gb|-10-10-10--5-5-5--7-7-7---------------10-9--10-9--10-9--10p9-|
Db|-10-10-10--5-5-5--7-7-7--8-8-8--10-10-10-10-10-10-10-10-10---|
Ab|-8--8--8---3-3-3--5-5-5--8-8-8--10-10------------------------|
Eb|-------------------------6-6-6--8--8-------------------------|

eb|-------------------------------------------------------------|
Bb|-------------------------------------------------------------|
Gb|-10-10-10--5-5-5--7-7-7---------------10-9--10-9--10-9--10p9-|
Db|-10-10-10--5-5-5--7-7-7--8-8-8--10-10-10-10-10-10-10-10-10---|
Ab|-8--8--8---3-3-3--5-5-5--8-8-8--10-10------------------------|
Eb|-------------------------6-6-6--8--8-------------------------|

eb|--------------------------------|
Bb|--------------------------------|
Gb|--------------------------------|
Db|-8-8--8-8-8--10-10-10--10-10-10-|
Ab|-8-8--8-8-8--10-10-10--10-10-10-|
Eb|-6-6--6-6-6--8--8--8---8--8--8--|
                                       Lead Guitar                    
eb|--------------------------------| |-15-15b(17)b15p13-|
Bb|--------------------------------| |------------------|
Gb|--------------------------------| |------------------|
Db|-8-8--8-8-8--10-10-10--10-10-10-| |------------------|
Ab|-8-8--8-8-8--10-10-10--10-10-10-| |------------------|
Eb|-6-6--6-6-6--8--8--8---8--8--8--| |------------------|
                   ~
eb|-15b(17)-15-----13--|
Bb|--------------------|
Gb|--------------------|
Db|--------------------|
Ab|--------------------|
Eb|--------------------|

eb|--------------------|
Bb|--------------------|
Gb|-10------5----------|
Db|-10------5------8---|
Ab|-8-------3------8---|
Eb|----------------6---|

there you have it, beautiful bomb by reckless love. enjoy :)

Band website: http://www.recklesslove.com/

************************************
Tap to rate this tab
 
# A B C D E F G H I J K L M N O P Q R S T U V W X Y Z