Song name
# A B C D E F G H I J K L M N O P Q R S T U V W X Y Z

Reckless Love - Romance chords

Highlighted       Show chord diagrams
Romance by Reckless love
From the "Reckless Love" debut album!
Enjoy! tabbed by gilad201


Intro:


     G#m             F#            X2
E----4--------------4-----------------------|
B------4---5----------6---7-----------------|
G--------4--------------4-------------------|
D-------------------------------------------|
A-------------------------------------------|
E-------------------------------------------|

Cool bridge riff:

E---------------------------------------------|
B---------------------------------------------|
G------------------------------4--1-----------|
D------------------------1--1-----------------|
A---------------2-----------------------------|
E----4---2---4--------------------------------|


G#m                  F#
The neon lights are shining blue,
G#m             F#
Shivers of red running through,
G#m           F#                      G#m
Serenity surrounding her steps as she walks,
        F#
Back to you,


G#m                     F#
Heat of the night keeps callin' her,
G#m                      F#
She's better than you or i deserve,
G#m                F#                        G#m
The entertainer of rich lookin' cheap in her tight,
       F#
Little skirt,

E            F#                 G#m (Cool Riff) F#
Breakin' her back she's working night n' day, (night n' day),
E          F#            D#5
Saving her secret for no one,

        G#m    F#
Livin' on a romance,
             G#m         F#
Baby coz' it keeps her alive,
            G#m   F#     G#m
Livin' on a romance....

G#m                   F#
So many times she has been abused,
G#m                      F#
The little hands and the broken shoes,
G#m                 F#                            G#m
Her heart is aching inside but her smile is Still there,
        F#
Staying true,

E            F#                 G#m (Cool Riff) F#
Breakin' her back she's working night n' day, (night n' day),
E          F#            D#5
Baby there's nothing you can do,

        G#m    F#
Livin' on a romance,
             G#m         F#
Baby coz' it keeps her alive,
            G#m   F#     G#m
Livin' on a romance....

Solo:
G#m, F# X4

Outro chords:
E , F# , G# , B

E     F#               G#         B
I belive that this was inevitable,
E         F#                    D#5
Because i know she wants to get high,
       C#5
On lo-ove,


(silent)
romance,
B5 A#5 G#5     G#m         F#
Ba-by  coz' it keeps her alive,
            G#m   F#     G#m
Livin' on a romance....
Tap to rate this tab
 
# A B C D E F G H I J K L M N O P Q R S T U V W X Y Z