Song name
# A B C D E F G H I J K L M N O P Q R S T U V W X Y Z

Reckless Love - Romance tab

---------------------------------------------------|
---9^^------9^-7-9vv----13^---------15s9----6-7-6--|
---11------------------------15p13--15s9-----------|
---------------------------------------------------|
---------------------------------------------------|
---------------------------------------------------|


---------------------------------------------------|
----6-----------9*vvvvW/B--------------------------|
--8----8s10-8--9*----------------------------------|
--------------9*-----------------------------------|
---------------------------------------------------|
---------------------------------------------------|

---------------------------------------------------|
---------------------------------------------------|
--13 13-16-16-18-1820--23s20-----------------------|
--x--x--x--x--x--x-x---x--x------------------------|
--11-11-14-14-16-1618--21s18-----------------------|
---------------------------------------------------|


   3  3  3    (x4)
---16 19 18 ----------20^^^^^^---------------------|
---------------------------------------------------|
---------------------------------------------------|
---------------------------------------------------|
---------------------------------------------------|
---------------------------------------------------|
Tap to rate this tab
 
# A B C D E F G H I J K L M N O P Q R S T U V W X Y Z