Song name
# A B C D E F G H I J K L M N O P Q R S T U V W X Y Z

Reckless Love - Romance tab

Romance by Reckless Love
Half step down



  [Intro]                          [natural Harmonic and divebomb]
 eb|----5---------5--------5---------5-----5*----------------|
 Bb|-----5--6~-----6--8~----5--6~-----6--8-------------------|
 Gb|------5---------7--------5---------7---------------------|
 Db|---------------------------------------------------------|
 Ab|---------------------------------------------------------|
 Eb|---------------------------------------------------------|


There is a section where there is no guitar, just singing, drums and bass
Then it is this part
           Repeat 4 times
 eb|-----|-------------|-------------------------------------|
 Bb|-----|-------------|-------------------------------------|
 Gb|-----|-------------|---------------------7----7--9--5-5--|
 Db|-7-7-|-2-3-3-5-7-7-|-7---9-----------------5--5--7--3-5--|
 Ab|-5-5-|-00303050707-|-5---7---------3--5-7----------------|
 Eb|-----|-------------|----------5-3-5----------------------|
         [Every non-power 
       chord is palm muted]


Chorus
 eb|--------------------------------|
 Bb|--------------------------------|
 Gb|-------------------------------o|
 Db|----9--9.-5--5.-7--5-----------o|
 Ab|----7--7.-3--3.-5--3-3-2--------|
 Eb|------------------------5-3-5---|



    Solo
 eb|------------------------------------------------------------|
 Bb|--10-10-10---------13br-12-10-12----------------------------|
 Gb|--12b12b12br10-12-----------------11-12-11-9-11-9-----------|
 Db|-------------------------------------------------11-12-11-12|
 Ab|------------------------------------------------------------|
 Eb|------------------------------------------------------------|


   [natural harmonic and dive bomb]
 eb|-5*------------------------------------20p17--20p17---20p17--|
 Bb|-5*--------10-10/13-13/15-15/17h20p17-------17-----17------17|
 Gb|------------7--7/10-10/12-12/14------------------------------|
 Db|-------------------------------------------------------------|
 Ab|-------7-7---------------------------------------------------|
 Eb|-------5-5---------------------------------------------------|



 eb|-20p17--20p17---20b--------------------------------------|
 Bb|------17-----17------------------------------------------|
 Gb|---------------------------------------------------------|
 Db|---------------------------------------------------------|
 Ab|---------------------------------------------------------|
 Eb|---------------------------------------------------------|
Tap to rate this tab
 
# A B C D E F G H I J K L M N O P Q R S T U V W X Y Z