Song name
# A B C D E F G H I J K L M N O P Q R S T U V W X Y Z

Reckless Love - One More Time tab

One More Time by Reckless Love
Off "Reckless Love"
Tabbed by Dom Glynn

Killer song with a great solo.  I worked it out by ear and it's 100% correct. Enjoy!

Key:
/    slide
b    bend up
bd   bend down
[12] harmonic
p    pull-off


Intro:
       Play twice
E --------------------------------------------------|
B -----------------------------------1010991010-----|
G -----------------------------------9-9-999-9------|
D --------------------------------------------------|
A --------------------------------------------------|
E 2224445-77799911-99911111112-5--------------------|

Verse:
        Play twice

E ---------------------------------------------------------------------|
B ----------------------------------------------------10-9--10-9--9109-|
G --9---9---9---9-------------------------------------9--9--9--9--99-9-|
D --9---9---9---9---9---9---9---9---11--11--11--11---------------------|
A 777777777777777---9---9---9---9 --11--11--11--11---------------------|
E ----------------777777777777777 999999999999999--55------------------|

Pre-chorus:

E ---------------------------------------|
B ----0--------------0--------------0----|
G ----8--------------8--------------8----|
D 9-9------------9-9------------9-9---77-|
A 9-9------------9-9------------9-9---77-|
E 7-7---540-540--7-7---540-540--7-7---55-|

Chorus:
         Play four times
E -----------------------------------------------------------------|
B -----------------------------------------------------------------|
G --9---9---9---9--------------------------------------------------|
D --9---9---9---9---9---9---9---9---7---7---7---7-9--9---9---9---9-|
A 777777777777777---9---9---9---9---7---7---7---7-9--9---9---9---9-|
E ----------------777777777777777-555555555555555-7777777777777777-|

         Play this after the fourth time:
E ------------------|
B ------------------|
G --9---9---9---9---|
D --9---9---9---9-9-|
A 777777777777777-9
E-----------------7

Play Intro.

Verse 2:
Rhythm:
       Play Once
E -------------------------------------------------------------------|
B ---------------------------------------------------10-9-10-9--9109-|
G ---------------------------------------------------9--9-9--9--99-9-|
D ------------------9---9---9---9---11-11--11--11--------------------|
A ------------------9---9---9---9---11-11--11--11--------------------|
E ----------------777777777777777-99999999999999--55-----------------|
      Play Once
E ---------------------------------------------------------------------|
B ----------------------------------------------------10-9--10-9--9109-|
G --9---9---9---9-------------------------------------9--9--9--9--99-9-|
D --9---9---9---9---9---9---9---9---11--11--11--11---------------------|
A 777777777777777---9---9---9---9 --11--11--11--11---------------------|
E ----------------777777777777777 999999999999999--55------------------|

Lead:

E ------------------12more whammy [12]whammy----------------------------|
B 17whammy flutters-----------------------------------------------------|
G ----------------------------------------------------------------------|
D ----------------------------------------------------------------------|
A ----------------------------------------------------------------------|
E ----------------------------------------------------------------------|

E 12whammy-------[12]--[5]--[12--|
B -----------[12]----------------|
G -------------------------------|
D -------------------------------|
A -------------------------------|
E -------------------------------|

Play chorus and then intro.

Solo:

E -----------------------------------------------------------------------|
B -------------------------------------------------12b14-12b14bd12-10910-|
G 11b13bd11-9-11b13bd11-9-9b11bd9-8-11-11b13bd11-9-----------------------|
D -----------------------------------------------------------------------|
A -----------------------------------------------------------------------|
E -----------------------------------------------------------------------|

E -----12-12------------------------------------------------------------|
B 10/12------10p9-10p9--10p9-10p9---10p9---10p9-10p9--10p9-10p9--10p9---|
G --------------------99---------99-----99----------99---------99----99-|
D ----------------------------------------------------------------------|
A ----------------------------------------------------------------------|
E ----------------------------------------------------------------------|

E ---------------------------------------------------------------------|
B 12-999-10-999-12-999-10-999-12-999-10-12-999-10-999-14-999-12-999-14-|
G ---------------------------------------------------------------------|
D ---------------------------------------------------------------------|
A ---------------------------------------------------------------------|
E ---------------------------------------------------------------------|

E --------------------------------------------------------------------|
B 999-12-999-14-999-12-999-14-999-12-999-1291012-101214-121416-141617-|
G --------------------------------------------------------------------|
D --------------------------------------------------------------------|
A --------------------------------------------------------------------|
E --------------------------------------------------------------------|

E --------------------------------------------------------------------|
B 161719-171921-192122-22/24(BEND IF PLAYING A 22 FRET GUITAR)--------|
G --------------------------------------------------------------------|
D --------------------------------------------------------------------|
A --------------------------------------------------------------------|
E --------------------------------------------------------------------|

Ending: Play intro

E ---------|
B 554455---|
G 444444---|
D -------2-|
A -------2-|
E -------0-|
Tap to rate this tab
 
# A B C D E F G H I J K L M N O P Q R S T U V W X Y Z