Song name
# A B C D E F G H I J K L M N O P Q R S T U V W X Y Z

Reckless Love - Romance tab

Romance - Reckless Love

Tuning: half step down/ Eb

The other tab was kinda (alot) of, so i wanted to make a more correct one


[Intro]
                                       *natural harmonic and dive 
                                        down with the whammy bar
e|---5---------5---------5---------5------------------|
B|-----5---6-----6---8-----5---6-----6---8------------|
G|-------5---------7---------5---------7------5*------|
D|----------------------------------------------------|
A|----------------------------------------------------|
E|----------------------------------------------------|


[Verse]

e|-------|------------------------------------|
B|--8-8--|------------------------------------|
G|--7-7--|--------5-----7---7-----9-----9-----|
D|--5-5--|--2-----3-----4---5-----7-----7-----|
A|-------|--0-0-0---0-0---0---0-0---0-0---0---|
E|-------|------------------------------------|


[Pre-Chorus]

e|------------------------------------------------------|
B|----------6---8-------------------------6---8---5-5---|
G|---9-9-7--5---7------------------5------5---7---4-4---|
D|---7-7-5--3---5--------------------7----3---5---2-2---|
A|-------------------------3---5-7----------------------|
E|-------------------5-3-5------------------------------|


[Chorus]

e|------------------------|
B|-------6---8------------|
G|---2---5---7------------|
D|---2---3---5------------|
A|---0----------3-2---0---|
E|------------------3-----|  x3

then
e|--------------|
B|---6----8-8---|
G|---5----7-7---|
D|---3----5-5---|
A|--------------|
E|--------------|


[Solo Rhythm]

e|------------------------|
B|-------8---10-----------|
G|---4---7---9------------|
D|---4---5---7------------|
A|---2----------5-4---2---|
E|------------------5-----|  x2

then:
e|------------------------|
B|-------6---8------------|
G|---2---5---7------------|
D|---2---3---5------------|
A|---0----------3-2---0---|
E|------------------3-----|

then:
e|----------------|
B|-------6---8----|
G|---2---5---7----|
D|---2---3---5----|
A|---0------------|
E|----------------|


[Guitar Solo]

  (Bm)
e|------------------------------------------------------------|
B|---12--12----------15-14-12-----12--------7h8p7-------------|
G|---14b-14br-11-14-----------14--14b---7-9-------9-7-11-9----|
D|------------------------------------------------------------|
A|------------------------------------------------------------|
E|------------------------------------------------------------|

  (Am) *natural harmonics
e|----5*------------------------------------20p17---20p17---20p17---20p17-20-20b--|
B|---5*--------10/13-13/15-15/17-17/20-17--------17------17------17---------------|
G|--5*----------------------------------------------------------------------------|
D|--------7\----7/10-10/12-12/14-14/17--------------------------------------------|
A|--------7\----------------------------------------------------------------------|
E|--------5\----------------------------------------------------------------------|


[Bridge]

Clean tone:
e|-----------------------|----------------------|-------------|
B|-----------------------|----------------------|-------------|
G|-----0----0----0----0--|----0----0----0----0--|----0----0---|
D|----3----0----2----2---|---3----0----2----2---|---3----0----|
A|---3---------0----3----|--3---------0----3----|--3----------|
E|--------3--------------|-------3--------------|-------3-----|

Then with distortion:
e|-------------------------------------|
B|-------------------------------------|
G|-------------------------------------|
D|---2---------------3-------5---------|
A|---2-2-2-2-2-2-2-2-3-3-3-3-5-5-5-5---|
E|---0-0-0-0-0-0-0-0-1-1-1-1-3-3-3-3---|


/   slide up
\   slide down
h   hammer-on
p   pull-off
b   Bend
br  Bend release
Tap to rate this tab
# A B C D E F G H I J K L M N O P Q R S T U V W X Y Z