Reckless - Tunnel Vision tab

-----------------------------------------------------------------
                     TUNNEL VISION-RECKLESS
-----------------------------------------------------------------
Tabbed by: Raniero Calderon
Email: rhca.skstuff@gmail.com

Tuning: Standard (EADGBE)

Note: I think mosg of this is done using alternate picking, I could place mostof the 
in position one of the blues scale, howeverb I feel like the voicings on the thicker 
go with the song and also alternate picking it all makes it easier, or it's just me...

Intro:
e|---------------------------------------------------------------------|
B|---------------------------------------------------------------------|
G|---------------------------------------------------------------------|
D|---------------------------------------------------------------------|
A|-----------------5--------------------5--------------------5---------|
E|0-0-12-0-0-5h6h7---7p6p5-0-0-12-5h6h7---7p6p5-0-0-12-5h6h7---7p6p5---|

e|---------------------------------------------------------------------|
B|---------------------------------------------------------------------|
G|---------------------------------------------------------------------|
D|---------------------------------------------------------------------|
A|---------------------------------------------------------------------|
E|-0-0-12-0-0-0--------------------------------------------------------|

e|---------------------------------------------------------------------|
B|---------------------------------------------------------------------|
G|---------------------------------------------------------------------|
D|---------------------------------------------------------------------|
A|-------------------5--------------------5--------------------5-------|
E|0-0-0-12-0-0-5h6h7---7p6p5-0-0-12-5h6h7---7p6p5-0-0-12-5h6h7---7p6p5-|

e|---------------------------------------------------------------------|
B|---------------------------------------------------------------------|
G|---------------------------------------------------------------------|
D|---------------------------------------------------------------------|
A|-----------------------------------5------------------------5--------|
E|-0-0-12-0-0-5-6-7-0-0-12-0-0-5h6h7---7p6p5-0-0-12-0-0-5h6h7---7p6p5--|

e|---------------------------------------------------------------------|
B|---------------------------------------------------------------------|
G|---------------------------------------------------------------------|
D|---------------------------------------------------------------------|
A|------------------5--------------------------------------------------|
E|-0-0-12-0-0-5h6h7---7p6p5-0-0-12-0-0--3/12---------------------------|

e|---------------------------------------------------------------------|
B|---------------------------------------------------------------------|
G|---------------------------------------------------------------------|
D|---------------------------------------------------------------------|
A|---------------------------------------------------------------------|
E|-0-12-10-0-0-12-0-0-10-0-3h5-0-12-10-0-0-12-0-0-10-0-3h5-------------|

e|---------------------------------------------------------------------|
B|---------------------------------------------------------------------|
G|---------------------------------------------------------------------|
D|---------------------------------------------------------------------|
A|---------------------------------------------------------------------|
E|-0-12-10-0-0-12-0-0-10-0-3h5-0-12-10-0-0-3/12------------------------|


| /  slide up
| \  slide down
| h  hammer-on
| p  pull-off
| ~  Vibrato
| +  harmonic
| x  Mute note
Tap to rate this tab
 
# A B C D E F G H I J K L M N O P Q R S T U V W X Y Z