Song name
# A B C D E F G H I J K L M N O P Q R S T U V W X Y Z

Reckless - 27 tab

Intro (with delay)

 1.e---------------------       2.e---------------------|
   B---------------------         B---------------------|
   G--------------------- x2      G---------------------|  x2
   D---6--4h6--2h4--1h2--         D---2--1h2------------|
   A-4-------------------         A-0---------4h6--2h4--|
   E---------------------         E---------------------|

 3.e---------------------       4.e-----------------------------------------|
   B---------------------         B-----------------------------------------|
   G--------------------- x2      G-----------------------------------------|
   D---9--7h9--6h7--4h6--         D---6--4h6--2h4--1h2----6--4h6--7/6-------|
   A-7-------------------         A-3-------------------3--------------9p6--|
   E---------------------         E-----------------------------------------|



pre-verse

e---------------------------------------------------------|
B---------------------------------------------------------|
G-6--8--9--13----6--8--9--13/14----13--14-16----13--14-13-|
D---------------------------------------------------------|
A-4--6--7--11----4--6--7--11/12----11--12-14----11--12-11-|
E---------------------------------------------------------|

e-----------------|
B-----------------|
G-13--11-9--8--5--|
D-----------------|
A-11--9--7--6--3--|
E-----------------|


Verse
C#m-B-G#-A X2

Chorus
A-B-Cdim-C#m x2
Tap to rate this tab
# A B C D E F G H I J K L M N O P Q R S T U V W X Y Z