Song name
# A B C D E F G H I J K L M N O P Q R S T U V W X Y Z

Recorded - Yours tab

e--2-222-22-22-22220-000-00-00-00000-000-00-00-00000-000-00-00-0000|
B--0-000-00-00-00002-222-22-22-22220-000-00-00-00003-333-33-33-3333|
G--0-000-00-00-00000-000-00-00-00002-222-22-22-22220-000-00-00-0000|  X4
D------------------------------------------------------------------|
A------------------------------------------------------------------|
E------------------------------------------------------------------|


e--2-222-22-22-2222-0-000-00-00-0000-2-222-22-22-2222--------------|
B--2-222-22-22-2222-0-000-00-00-0000-0-000-00-00-0000--------------|
G--2-222-22-22-2222-0-000-00-00-0000-0-000-00-00-0000--------------|
D------------------------------------------------------------------|
A------------------------------------------------------------------|
E------------------------------------------------------------------|


e--2-223-32-22-00--------------------------------------------------|
B--0-000-00-00-00--------------------------------------------------|
G--2-222-22-22-00--------------------------------------------------|  X4
D------------------------------------------------------------------|
A------------------------------------------------------------------|
E------------------------------------------------------------------|


e--3333333-333333-2222222-222222-0000000-000000--2-2-22-2-2--------|
B--0000000-000000-0000000-000000-2222222-000000--2-2-22-2-2--------|
G--0000000-000000-0000000-000000-2222222-000000--2-2-22-2-2--------|
D------------------------------------------------------------------|
A------------------------------------------------------------------|
E------------------------------------------------------------------|


e--2-222-22-22-22220-000-00-00-00000-000-00-00-00000-000-00-00-0000|
B--0-000-00-00-00002-222-22-22-22220-000-00-00-00003-333-33-33-3333|
G--0-000-00-00-00000-000-00-00-00002-222-22-22-22220-000-00-00-0000|  
D------------------------------------------------------------------|
A------------------------------------------------------------------|
E------------------------------------------------------------------|


e--2-222-22-22-2222-0-000-00-00-0000-2-222-22-22-2222--------------|
B--2-222-22-22-2222-0-000-00-00-0000-0-000-00-00-0000--------------|
G--2-222-22-22-2222-0-000-00-00-0000-0-000-00-00-0000--------------|
D------------------------------------------------------------------|
A------------------------------------------------------------------|
E------------------------------------------------------------------|


e--2-223-32-22-00----2-223-22-22-00--2-223-22~~--------------------|
B--0-000-00-00-00--------------------------------------------------|
G--2-222-22-22-00--------------------------------------------------| 
D------------------------------------------------------------------|
A------------------------------------------------------------------|
E------------------------------------------------------------------|
Tap to rate this tab
# A B C D E F G H I J K L M N O P Q R S T U V W X Y Z