Song name
# A B C D E F G H I J K L M N O P Q R S T U V W X Y Z

Recover - Two Minutes Hate tab

http://www.killrecover.com
Band - recover
Song - two minutes hate
Album - Rodeo and picasso
Tabber - Alan McIver

I tabbed this out a while ago then washed my notes recently so this
is from memory ill post the two bits i missed when i get my other
notes back or i remember them

Intro
e|-------------------------------------
b|-------------------------------------
g|-x-x-7-7-7-7-7-7-7-7-6-6-6-6-6-6-6-6-
d|-x-x-5-5-5-5-5-5-5-5-5-5-5-5-5-5-5-5-
a|-------------------------------------
D|-------------------------------------

chorus
e|-------------------------------------
b|-------------------------------------
g|-7-7-7--7-7--6-6-6--6-6--------------
d|-5-5-5--5-5--5-5-5--5-5--4-----------
a|-------------------------2-4-5-------
D|---------------------------4-5-------

e|-------------------------------------
B|-------------------------------------
G|-7-7-7--7-7--6-6-6--6-6--------------
D|-5-5-5--5-5--5-5-5--5-5--------------
A|-------------------------2-4-5-------
D|-------------------------2-4-5------- X2

Riff 1
e|----------------------------
b|----------------------------
g|-7-7-6-6--------------------
d|---------7-7----------------
a|-5-5-5-5-5-5----------------
D|----------------------------X3

Fourth time
e|----------------------------
b|----------------------------
g|-7-7-6-7-8b-----------------
d|-x-x-x-x--------------------
a|-5-5-5-5--------------------
D|----------------------------

e|-----------------------------
b|-----------------------------
g|-----------------------------
d|-5-5-5-5-x-x-5-5-5-5-x-x-5-5-
a|-5-5-5-5-x-x-5-5-5-5-x-x-5-5-
D|-5-5-5-5-x-x-5-5-5-5-x-x-5-5-

e|-----------------------------
b|-----------------------------
g|-----------------------------
d|-0-0-0-0-x-x-0-0-0-0-x-x-0-0-
a|-0-0-0-0-x-x-0-0-0-0-x-x-0-0-
D|-0-0-0-0-x-x-0-0-0-0-x-x-0-0-

then without muting

Riff 1
Chorus

Add next bit later Along with the solo

Chorus

Thats it E-mail me with remarks, querys or improvements
At mciverbmx@hotmail.com
Tap to rate this tab
# A B C D E F G H I J K L M N O P Q R S T U V W X Y Z