Song name
# A B C D E F G H I J K L M N O P Q R S T U V W X Y Z

Recover - Betting All Ive Got tab

Band - Recover
Song - Betting all i've got
Album - Rodeo and Picasso

Drop D tuning

---------------------------------------------------------
---------------------------------------------------------
---------------------------------------------------------
-4-4-4--4-4-4--4-4-4--4-4-4--7-7-7--7-7-7--7-7-7--7-7-7--
-4-4-4--4-4-4--4-4-4--4-4-4--7-7-7--7-7-7--7-7-7--7-7-7--
-4-4-4--4-4-4--4-4-4--4-4-4--7-7-7--7-7-7--7-7-7--7-7-7--
 u u d  d u d  d u d  u u d  d u d  d u d  d u d  d u d


---------------------------------------------------------
---------------------------------------------------------
---------------------------------------------------------
-4-4-4--4-4-4--4-4-4--4-4-4--0-0-0--0-0-0--0-0-0--0-0-0--
-4-4-4--4-4-4--4-4-4--4-4-4--0-0-0--0-0-0--0-0-0--0-0-0--
-4-4-4--4-4-4--4-4-4--4-4-4--0-0-0--0-0-0--0-0-0--0-0-0--


--------------------------------
--------------------------------
--------------------------------
-2-2-2-2-2--4-4-4-4-4-----------
-2-2-2-2-2--4-4-4-4-4-----------
-2-2-2-2-2--4-4-4-4-4-----------


-----------------------------------
-----------------------------------
-----------------------------------
-0~-----2~--then--4-0---------4-0--
-0~-----2~--------4-0---------4-0--
-0~-----2~--------4-0---------4-0--


--------------------------------
--------------------------------
--------------------------------
-------------------4-0----------
---0-2-4-------0-2-4-0----------
-4-------0---2-----4-0----------

Thats it another Recover tab. im working on the new ep now.
im nearing completion of my only cure and inhale water

comenents, requests and querys to mciverbmx@hotmail.com
Tap to rate this tab
 
# A B C D E F G H I J K L M N O P Q R S T U V W X Y Z