Song name
# A B C D E F G H I J K L M N O P Q R S T U V W X Y Z

Red Bacteria Vacuum - Sound Dive tab

Red Bacteria Vacuum - Sound Dive
Album: Killer Dust (2004)
Tabbed by Hayden (HaydeN64) 05/02/13
Tuning: Half a step down

Key: (unnecessary)

Verse phase one
eb|-----------------|
Bb|-----------------|
Gb|-------7-7-7-----|
Db|-7-7-7-7-7-7-6-6-|
Ab|-7-7-7-5-5-5-6-6-|
Eb|-5-5-5-------4-4-|

Verse phase two
eb|-----------------------------|
Bb|-----------------------------|
Gb|-------7-7-7-----------------|
Db|-7-7-7-7-7-7-6--6-6--6-6-6-6-|
Ab|-7-7-7-5-5-5-6--6-6--6-6-6-6-|
Eb|-5-5-5-------4--4-4--4-4-4-4-|

Chorus
eb|--------------------------------|
Bb|--------------------------------|
Gb|-5-5-5-5-5-5-5-5----------------|
Db|-5-5-5-5-5-5-5-5-5-5-5-4--4-4-4-|
Ab|-3-3-3-3-3-3-3-3-5-5-5-4--4-4-4-|
Eb|-----------------3-3-3-2--2-2-2-|

Bridge
eb|-----------------|     eb|-------------------------|
Bb|-----------------|     Bb|-------------------------|
Gb|-----------------|     Gb|-------------------------|
Db|-6-6-6-7-7-8-8-8-|     Db|-------------------------|
Ab|-6-6-6-7-7-8-8-8-|     Ab|-------------------------|
Eb|-4-4-4-5-5-6-6-6-|x10  Eb|-3-4-5-3-4-5-3-4-5-3-4-5-|x1

End Breakdown
eb|---------------------------------|
Bb|---------------------------------|
Gb|-5-5-5-5-5-5-5-5-----------------|
Db|-5-5-5-5-5-5-5-5-5-5-5-5-4-4-4-4-|
Ab|-3-3-3-3-3-3-3-3-5-5-5-5-4-4-4-4-|
Eb|-----------------3-3-3-3-2-2-2-2-|

Order:
Verse Phase one x 4
Verse phase two x 3
Verse phase one x 1
Chorus x 8
Verse phase one x 4
Chorus x 8
Bridge (specified on tab)
Chorus x 12
End Breakdown x 4 (slowed progression on last bar)

--------------------------------------------------------------------------||
Notes
- during the phase one part of the verse, the power chords stemming from 
  the Ab|5 are two solid strokes and the third being a half flick double
  tempo before transitioning into the next power chord, Eb|4. Just listen
  to the song and you'll understand the timing and rhythm. 
- Same drill. Half a step down, 'cause that's how they made their album. 
- This is by far my favorite RBV song. It draws alot of influence from L7,
  Particularly the song 'Drama'. 
- Live versions may vary, but this is accurate according to 'Killer Dust'.
- Any questions or corrections? put 'em though.
- rest of the album still to come. ENJOOOY 


Tap to rate this tab
# A B C D E F G H I J K L M N O P Q R S T U V W X Y Z