Song name
# A B C D E F G H I J K L M N O P Q R S T U V W X Y Z

Red Bacteria Vacuum - Noise Pollution tab

Red Bacteria Vacuum - Noise Pollution
Album: Killer Dust (2004)
Tabbed by Hayden (HaydeN64) 04/02/13
Tuning: Half a step down

Key: Unnecessary

Verse
eb|---------------------------------|
Bb|---------------------------------|
Gb|-----------------4-4-4-4-3-3-3-3-|
Db|-6-6-6-6-5-5-5-5-4-4-4-4-3-3-3-3-|
Ab|-6-6-6-6-5-5-5-5-2-2-2-2-1-1-1-1-|
Eb|-4-4-4-4-3-3-3-3-----------------|

Chorus
eb|---------------------------------|
Bb|---------------------------------|
Gb|-9-9-9-9-8-8-8-8-8---------------|
Db|-9-9-9-9-8-8-8-8-8-8-8-8-8-8-8-8-|
Ab|-7-7-7-7-6-6-6-6-8-8-8-8-8-8-8-8-|
Eb|-----------------6-6-6-6-6-6-6-6-|

Alternate Verse
eb|---------------------------------|
Bb|---------------------------------|
Gb|-----------------4-4-4-4-4-4-4-4-|
Db|-6-6-6-6-5-5-5-5-4-4-4-4-4-4-4-4-|
Ab|-6-6-6-6-5-5-5-5-2-2-2-2-2-2-2-2-|
Eb|-4-4-4-4-3-3-3-3-----------------|

Bridge
eb|---------------------------------|
Bb|---------------------------------|
Gb|-7-9-9-9-9-9-9-9-7-9-9-9-9-9-9-9-|
Db|-7-9-9-9-9-9-9-9-7-9-9-9-9-9-9-9-|
Ab|-5-7-7-7-7-7-7-7-5-7-7-7-7-7-7-7-|
Eb|---------------------------------|

Order:
Verse   x 12
Chorus  x 4
Verse   x 4
Chorus  x 4
Alternate Verse x 8
Bridge  x 2
Verse   x 4
Chorus  x 4
Alternate Verse x 8

------------------------------------------------------------------------||
Notes

- This is their most hardcore punk song, The strumming is really fast.
- To my ear, this is right according to the album version, live
  versions may vary slightly but this is based off Killer Dust.
- Simple awesome song, any questions or corrections? put 'em through.
- It could be played in standard, but I tabbed it how they play it..
  If you want to play it standard just move everything one fret down.
:)
Tap to rate this tab
# A B C D E F G H I J K L M N O P Q R S T U V W X Y Z