Guitaretab - guitar tabs
Song name
# A B C D E F G H I J K L M N O P Q R S T U V W X Y Z

Red Car Wire - Kids In Love tab

-------------------------------------------------------------------------------
			     Kids In Love - Red Car Wire
-------------------------------------------------------------------------------
Tabbed by: Michael - (scetils)
Email: scetils_michael@hotmail.com

Tuning: Drop D



Intro/Verse (guitar 1)
e|-------------------------------------------------------------------|
B|----10----10-------10-----10-----8-----8------10---10--------------|
G|-------11-------9------9------------7-------9----9-----------------|
D|--0----------------------------0-----------------------------------|
A|-------------------------------------------------------------------|
D|-------------------------------------------------------------------|
  
   You've got me wishing...



Then 2nd Guitar comes in
e|-------------------------------------------------------------------|
B|-------------------------------------------------------------------|
G|-------------------------------------------------------------------|
D|--0--0-0-0---0-7-7-7-7---7-5-5-5-5---5--7--7-----------------------|
A|--0--0-0-0---0-7-7-7-7---7-5-5-5-5---5--7--7-----------------------|
D|--0--0-0-0---0-7-7-7-7---7-5-5-5-5---5--7--7-----------------------|

   Like this, we're cool...

Chorus
e|-------------------------------------------------------------------|
B|-------------------------------------------------------------------|
G|--7------9------4------7-7--7-7--7-7--7-7--7-7-7----7------9----9--|
D|--7-x16--7------2------5-5--5-5--5-5--5-5--5-5-5----5------7----7--|
A|--5------7-x16--2-x16--5-5--5-5--5-5--5-5--5-5-5----5-x16--7-x8-7--|
D|---------7------2------5-5--5-5--5-5--5-5--5-5-5----5------7----7--|

  Cause it's me and...  ...Top of the city        ...So make it happen...


Verse 2 (G-tar 1 the same)
e|-------------------------------------------------------------------|
B|-------------------------------------------------------------------|
G|-------------------------------------------------------------------|
D|-------------2-2--2---0--0--0-0-2-2--2--2-5-5--5--5----------------|
A|-------------2-2--2---0--0--0-0-2-2--2--2-5-5--5--5----------------|
D|-------------2-2--2---0--0--0-0-2-2--2--2-5-5--5--5----------------|

  Every... ...New life...For the first time...             


e|-------------------------------------------------------------------|
B|-------------------------------------------------------------------|
G|-------------------------------------------------------------------|
D|--0--0--0-0-2-2--2--2--5-5--5-5--5--5------------------------------|
A|--0--0--0-0-2-2--2--2--5-5--5-5--5--5------------------------------|
D|--0--0--0-0-2-2--2--2--5-5--5-5--5--5------------------------------|

   It's you, that i...

e|-------------------------------------------------------------------|
B|-------------------------------------------------------------------|
G|-------------------------------------------------------------------|
D|--0--0--0-0--0--2-2-2--2--5-5--5-5--2-2-2--------------------------|
A|--0--0--0-0--0--2-2-2--2--5-5--5-5--2-2-2--------------------------|
D|--0--0--0-0--0--2-2-2--2--5-5--5-5--2-2-2--------------------------|

[ Tab from: http://www.guitaretab.com/r/red-car-wire/116933.html ]
   I thought i was lost...

Chorus


Bridge

e|-------------------------------------------------------------------|
B|-------------------------------------------------------------------|
G|--4------7------------4------7-----9--------------------|
D|--2------5------------2------5-----7-------------------|
A|--2-x16--5-x16--------2-x16--5-x8--7-x8---------------------------|
E|--2------5------------2------5-----7-----------|

    Sharing secrets...

e|-------------------------------------------------------------------|
B|-------------------------------------------------------------------|
G|--4------7-----9--------------7------------------------------------|
D|--2------5-----7------X2------7------------------------------------|
A|--2-x16--5-x8--7-x8-----------5------------------------------------|
E|--2------5-----7---------------------------------------------------|

   You say them softly...    ...Cause it's me... 


Guitar 2 (Hard To Hear But sounds like it's playing this over and over)
e|--------------10--11---------------9--10--------------------------|
B|----10----10-------------10----10---------------------------------|
G|--7----7---------------7----7-------------------------------------|
D|------------------------------------------------------------------|
A|------------------------------------------------------------------|
E|------------------------------------------------------------------|


Post-Bridge
e|-10------9-----10------------------------------------------------------|
B|-----10-----10-----10---X2---------------------------------------------|
G|---------------------------------------------7-------------------------|
D|---------------------------5-5--5-5--5-5-7---5------7------------------|
A|---------------------------5-5--5-5--5-5-7---5-x16--7---pick slide>>>>>|
E|---------------------------5-5--5-5--5-5-7---5------7------------------|

  Cause it's me...        ...Top of the city...      

Chorus 

Ending
e|-----------10----12--9----------------------10----9----10--------------|
B|--------------10-------------------------------10---10-----------------|
G|-----------------------------------------------------------------------|
D|--7-7-7----------------------------7-7---------------------------------|
A|--7-7-7----------------------------7-7---------------------------------|
E|--5-5-5----------------------------5-5---------------------------------|

Guitar 2 plays
e|-----------------------------------------------------------------------|
B|--10---10----10---10---------------------------------------------------|
G|-----7----7-----7----7-(till the end)----------------------------------|
D|-----------------------------------------------------------------------|
A|-----------------------------------------------------------------------|
E|-----------------------------------------------------------------------|


This is my second tab i've ever done, i hope you like it.
I referred back to Evan and Davey playing this song acoustic
and a cover by  "JCcovers2" on youtube "http://www.youtube.com/watch?v=IgKrynk7rTM" thanks man. 

This song is on the new EP "Lets Never Get Older" Buy it, it's quite swell!!!

Please rate



Related for Kids In Love tab
Advertisement will be closed in 10 seconds