Guitaretab - guitar tabs
Song name
# A B C D E F G H I J K L M N O P Q R S T U V W X Y Z

Red Car Wire - Timing Just Isnt Your Thing tab

Heyy guys, this is my first tab and I think it's pretty right. I learned it by ear, I 
it isn't the way Red Car Wire plays it but it's better than nothing.

[ Tab from: http://www.guitaretab.com/r/red-car-wire/192215.html ]
e------------------------------------------------|
B------------------------------------------------|
G---7--------------------------7-----------------|
D---7X16---5------9-----5------7X8---7-----------|
A---5------5X16---9X8---5X8----5-----7X8---------|
E----------3------7-----3------------5-----------|

e------------------------------------------------|
B------------------------------------------------|
G---7------------------------------7-------------|
D---7X16---5------9-----7---5------7X8---7-------|
A---5------5X16---9X3---7---5X4----5-----7X8-----|
E----------3------7-----5---3------------5-------|
enjoy!
Related for Timing Just Isnt Your Thing tab
Advertisement will be closed in 10 seconds