Song name
# A B C D E F G H I J K L M N O P Q R S T U V W X Y Z

Red Car Wire - Timing Just Isnt Your Thing tab

Hey, this is my first tab. I just didn't found any correct tabs for this song, so 
here it is, i believe its almost 100% correct.

INTRO/CHORUS
e-----------------------------------|-----------------------------|
B-----------------------------------|-----------------------------|
G-------------------------8---------|-8---------------------------|
D-1----6----10--(8)--6----8----8----|-6---------------------------|2x
A-1----6----10--(8)--6----6----8(2x)|-6(let ring)-----------------|
D-1----6----10--(8)--6---------8----|-----------------------------|

BRIDGE 1
e--------------------------------------------|
B--------------------------------------------|
G--------------------------------------------|
D-1----8----6----8---------------------------|2x
A-1----8----6----8---------------------------|
D-1----8----6----8---------------------------|

BRIDGE 2 - This is just like the part played between 2:00 and 2:21
e------------------------------------------------------------|
B------------------------------------------------------------|
G------------------------------------------------------------|
D-1----8----6----1----10----8----6----1----------------------|
A-1----8----6----1----10----8----6----1----------------------|
D-1----8----6----1----10----8----6----1----------------------|
Tap to rate this tab
 
# A B C D E F G H I J K L M N O P Q R S T U V W X Y Z