Song name
# A B C D E F G H I J K L M N O P Q R S T U V W X Y Z

Red Day - Neutrala Ankor tab

Intro:

Guitar 1:
e|--------------------------------------------|
B|--------------------------------------------|
G|--------------------------------------------|
D|--------------------------------------------|
A|----0---0--------0--0----0---0------0--0----|
E|--0---------0---------0---------0-----------|


then

Guitar 1

e|--------x---------|
B|--0----0----0-----|
G|--x----x----0-----|
D|--2--2------x-----| Repeat
A|--3--x------3-----|
E|--2---------------|


Guitar 2

e|--8--6----------|
B|-------8---6~---|
G|----------------|
D|----------------|
A|----------------|
E|----------------|


Chorus:

Guitar 1
e|--------x---------|
B|--0----0----0-----|
G|--x----x----0-----|
D|--2--2------x-----| Repeat
A|--3--x------3-----|
E|--2---------------|


Guitar 2

e|------------------------------------------------------|
B|------------------------------------------------------|
G|------------------------------------------------------|
D|--/--2-2-2-2-2--3-3-3-3-3----7-7-7-5-5-5-4-4-4-3-3-3--|
A|--/--2-2-2-2-2--3-3-3-3-3----7-7-7-5-5-5-4-4-4-3-3-3--|
E|--/--0-0-0-0-0--1-1-1-1-1----5-5-5-3-3-3-2-2-2-1-1-1--|

e|----------------------------|
B|----------------------------|
G|----------------------------|
D|--2-2---2-2----2-2----2-2---|
A|--2-2---2-2----2-2----2-2---|
E|--0-0---0-0----0-0----0-0---|


http://www.reddaymusic.tk
Tap to rate this tab
# A B C D E F G H I J K L M N O P Q R S T U V W X Y Z