Song name
# A B C D E F G H I J K L M N O P Q R S T U V W X Y Z

Red Fang - Prehistoric Dog tab

My first ever Solo tab! The rest of the song will come later.


d-----------------------------------------------------------------|
B-----------------------------------------------------------------|
G------------------------16-16~~~~---16---------------------------|
D------------12-14 -16h19---------------19-16-14p12---------------| X3
A---14~---14-----------------------------------------14-14~~~~----|
D-----------------------------------------------------------------|

e--------------------------------------------------------------|
B--------------------------------------------------------------|
G------------------11------------------------------------------|
D------------12-14----14-12-12h14~~~--12h14p12----12-----------|
A---14~---14-----------------------------------14----14-12h14--|
D--------------------------------------------------------------|
Tap to rate this tab
# A B C D E F G H I J K L M N O P Q R S T U V W X Y Z