Song name
# A B C D E F G H I J K L M N O P Q R S T U V W X Y Z

Red Fang - Wires tab

-----------------------------------------------------------------------------
			     Wires - Red Fang
-----------------------------------------------------------------------------
Tabbed by:TheStig1214
Email:thestig1214@live.com

Tuning:

Guitar 1 
|---------------------------------------------------------------------------|
|---------------------------------------------------------------------------|
|---------------------------------------------------------------------------|
|---------------------------------------------------------------------------|
|---------------------------------------------------------------------------|
|----7-7-7-7-7-7-7-7-5h7-7-7-7-7-7-7-7--------------------------------------|

Guitar 2 (intro)
|---------------------------------------------------------------------------|
|---------------------------------------------------------------------------|
|---------------------------------------------------------------------------|
|-----------------------999999999999999999999999----------------------------|
|-----------------------999999999999999999999999----------------------------|
|-----------------------777777777777777777777777----------------------------|

Guitar 1
|---------------------------------------------------------------------------|
|---------------------------------------------------------------------------|
|---------------------------------------------------------------------------|
|--------------------------7h99---------------------------------------------|
|----------------------------------------------8p7p5-7p5p0------------------|
|----5-5-5-5-5-5-5-5-5h77--------7-7-7-7-7-7--------------------------------|

Guitar 2 
|---------------------------------------------------------------------------|
|---------------------------------------------------------------------------|
|---------------------------------------------------------------------------|
|--------------------------------999999999999-------------------------------|
|--------------------------------888888888888--8p7p5-7p5p0------------------|
|--------------------------------777777777777-------------------------------|

Guitar 1
|----------------|-----------------------|---------------------|------------|
|----------------|-----------------------|o--------------------|o-----------|
|--7-------------|-----------------------|---------------------|------------|
|--7-7-4-10-9----|----9-9-9-9---9-9-9-9--|----8-8-8-8-8-8-8-8--|------------|
|--5-7-4-10-9----|----9-9-9-9---9-9-9-9--|o---8-8-8-8-8-8-8-8--|o-----------|
|----5-2-8--7----|----7-7-7-7-5/7-7-7-7--|----6-6-6-6-6-6-6-6--|------------|

Guitar 2           (Verse)                                       (Small Fill)
|----------------|-----------------------|---------------------|------------|
|----------------|-----------------------|o--------------------|o--5b6-3----|
|--7-------------|-----------------------|---------------------|------------|
|--7-7-4-10-9----|----9-9-9-9---9-9-9-9--|----8-8-8-8-8-8-8-8--|------------|
|--5-7-4-10-9----|----9-9-9-9---9-9-9-9--|o---8-8-8-8-8-8-8-8--|o-----------|
|----5-2-8--7----|----7-7-7-7-5/7-7-7-7--|----6-6-6-6-6-6-6-6--|------------|

Guitar 1
|---------------------------------------------------------------------------|
|---------------------------------------------------------------------------|
|-------------------7-7-7-7-11-11-11-11-------------------------------------|
|---9-9-9-9-9-9-9-9-7-7-7-7-11-11-11-11-7-4-10-9----------------------------|
|---9-9-9-9-9-9-9-9-5-5-5-5-9--9--9--9--7-4-10-9----------------------------|
|---7-7-7-7-7-7-7-7---------------------5-2-8--7----------------------------|

Guitar 2           (Post-Verse)
|---------------------------------------------------------------------------|
|---------------------------------------------------------------------------|
|-------------------7-7-7-7-11-11-11-11-------------------------------------|
|---9-9-9-9-9-9-9-9-7-7-7-7-11-11-11-11-7-4-10-9----------------------------|
|---9-9-9-9-9-9-9-9-5-5-5-5-9--9--9--9--7-4-10-9----------------------------|
|---7-7-7-7-7-7-7-7---------------------5-2-8--7----------------------------|

(Guitar 1 Intro part with filter effect, although all heel on a wah works.)

(Repeat Verse and Post-Verse)

Guitar 1
|----------------------------------------------|----------------------------|
|----------------------------------------------|o---------------------------|
|----------------------------------------------|----------------------------|
|----9---12-9-----9-------9-9\7--7/9-9\4--4\0--|----------------------------|
|----9----------9---9---9----------------------|o---------------------------|
|----7--------7-------7------------------------|----------------------------|
(Then below once, then above once, no repeat)
|---------------------------------------------------------------------------|
|---------------------------------------------------------------------------|
|---------------------------------------------------------------------------|
|---4-0-/5--4--5--7--9--11--9--12--14b--------------------------------------|
|---------------------------------------------------------------------------|
|---------------------------------------------------------------------------|

Guitars 1&2
|-------------|----------------------------------------------------|--------|
|-------------|----------------------------------------------------|--------|
|----7--------|----------------------------------------------------|--------|
|----7-7-4-10-|----9-7/9--9--7/9-------------------4-4-5-4--2-0----|--------|
|----5-7-4-10-|----9-7/9--9--7/9---7h8p7p5---------4-4-5-4--2-0----|--------|
|------5-2-8--|----7-5/7--7--5/7-----------7-5-3-5-2-2-3-2--0------|--------|



Tap to rate this tab
 
# A B C D E F G H I J K L M N O P Q R S T U V W X Y Z