Song name
# A B C D E F G H I J K L M N O P Q R S T U V W X Y Z

Red Fang - Hank Is Dead tab

Red Fang - Hank Is Dead

well i said id put this up and i did
it took me a while to figure out the solo but i eventually got it
the solo doesn't sound 100% correct but its somewhat right 
enjoy

Intro:
D------------------------------------------------------------|
A------------------------------------------------------------|
F------------------------------------------------------------|
C------------------------------------------------------------|
G------------------/8-8-8-8-8-8-8-0---5-5-5-3h5-0-3-3-3-3h5-5|
C-0-0-0--0-0-0-0----------------------5-5-5-------3-3-3------|

Verse 1:
D------------------------------------------------------------|
A------------------------------------------------------------|
F------------------------------------------------------------|
C------------------------------------------------------------| X2
G------------------/8-8-8-8-8-8-8-0---5-5-5-3h5-0-3-3-3-3h5-5|
C-0-0-0--0-0-0-0----------------------5-5-5-------3-3-3------|

D---------------------------------------------------------------|
A---------------------------------------------------------------|
F---------------------------------------------------------------|
C---------------------------------------------------------------|X2
G------------------/8-8-8-10-12-10-8-10--5-5-5-3h5-0-3-3-3-3h5-5|
C-0-0-0--0-0-0-0-------------------------5-5-5-------3-3-3------|

Chorus:
D---------------------------|
A---------------------------|
F---------------------------|
C---------------------------|X4
G-0--12/--0--12/--55-3-55-3-|
C-0--12/--0--12/--55-3-53-3-|

Verse 2:
D------------------------------------------------------------|
A------------------------------------------------------------|
F------------------------------------------------------------|
C------------------------------------------------------------| X2
G------------------/8-8-8-8-8-8-8-0---5-5-5-3h5-0-3-3-3-3h5-5|
C-0-0-0--0-0-0-0----------------------5-5-5-------3-3-3------|

D---------------------------------------------------------------|
A---------------------------------------------------------------|
F---------------------------------------------------------------|
C---------------------------------------------------------------|X2
G------------------/8-8-8-10-12-10-8-10--5-5-5-3h5-0-3-3-3-3h5-5|
C-0-0-0--0-0-0-0-------------------------5-5-5-------3-3-3------|

Bridge:
D--------------------------------------------|
A--------------------------------------------|
F--------------------------------------------|
C--------------------------------------------|X2
G-0--7-5--0-3-5-3-0------0--7-5--0-3-5-3-0---|
C-0-----------------5-3--0-----------------3-|
(guitar 2 plays this during the solo)

Solo:
D-10b--12b--15b--17b-17-17-16-15-12----12-----------------------------------|
A-----------------------------------15----15--------------------------------|
F--------------------------------------------14-----------------------------|
C------------------------------------------------17-17-17-16-15----17-15----|
G---------------------------------------------------------------17-------17-|
C---------------------------------------------------------------------------|

D--------------------------------------------------------|
A--------------------------------------------------------|
F-------------------17b----------------------------------|
C-17-17-17-16-15----17b-15----15-17-15-17-15-17----17----|
G----------------17--------17-------------------17----17-|
C--------------------------------------------------------|

D--------------------------------------------------------|
A--------------------------------------------------------|
F--------------------------------------------------------|
C-15-17-15-17-15-17--17-15----15-17-15-17-15-17----------|
G--------------------------17-------------------17-17-17-|
C--------------------------------------------------------|

D----------------------|
A------------------15b-|
F----------------------|
C-15-17-15-17-15-17----|
G----------------------|
C----------------------|

Chorus:
D---------------------------|
A---------------------------|
F---------------------------|
C---------------------------|X4
G-0--12/--0--12/--55-3-55-3-|
C-0--12/--0--12/--55-3-53-3-|

Outro:
D-----------------------------------------------------------------|
A-----------------------------------------------------------------|
F-----------------------------------------------------------------|
C-----------------------------------------------------------------|
G-55-3--55-3--55-3-55-3~--(pick slide through strings)--0-12/-12/-|
C-55-3--55-3--55-3-55-3~--------------------------------0-12/-12/-|

Verse:
Burn the flesh that had long been rotten
He has gone but he's not forgotten
Sayin' his name but don't replace
The time he spent to make his space
He's the only one to keep alive

Chorus:
Here they come again
With their bloodshot eyes
Leave the promise land
Shed your earthly skin

Verse:
Left alone in a tiny capsule
He's the king of an empty castle
Went away to fill the grave
And made him stay a human slave
Never got to meet the son of mine

(solo)

Chorus:
Here they come again
With their bloodshot eyes
Leave the promise land
Shed your earthly skin 
Tap to rate this tab
# A B C D E F G H I J K L M N O P Q R S T U V W X Y Z