Song name
# A B C D E F G H I J K L M N O P Q R S T U V W X Y Z

Red Fang - Prehistoric Dog tab

First tab I've written. I think its mostly right. I have miss a couple of small
bits but you can figure them out. They are easy.


Intro
|-----------------------------------|
|-----------------------------------|
|--------7--9-----------------------|
|9-9999--7--9---9-9-------7-7h9p7---|
|9-9999--5--7---9-9-7h9p7-----------|
|7-7777---------7-7---------------5-|

|-------------------------------------|(This part repeats twice in some areas)
|-------------(-----------------------|You get the idea.
|--------7--9-(--------7--------------|
|9-9999--7--9-(--8-5-5-7-5-7----------|
|9-9999--5--7-(--8-5-5-5-5-7----------|
|7-7777-------(--6-3-3---3-5----------|

verse

|-----------------------------------------------------------------------|
|-----------------------------------------------------------------------|
|----7-----6-------7h9p7-------------10--------12-----------------12p10-|
|999---999---7h9p7-------9p7--121212----121212----121212-10h12p10-------|
|999---999--------------------121212----121212----121212----------------|
|777---777--------------------101010----101010----101010----------------|

chorus
|-----------------------(----------------------|Add this for outro
|-----------------------(----------------------|
|-----------------------(----9---9-------------|
|-9-9-9-9-9-9-9-9-------(--9-9-9-9-------------|
|-9-9-9-9-9-9-9-9-------(--9-7-9-7-------------|
|-7-0-7-0-7-0-7-0-------(--7---7---------------|

Solo

|--------------------------------------------------|
|--------------10-12---12-10-----------------------|
|-------7-9-11---------------11-9-7----------------|
|--9---9----------------------------7-<<
                        
                    
Tap to rate this tab
# A B C D E F G H I J K L M N O P Q R S T U V W X Y Z