Song name
# A B C D E F G H I J K L M N O P Q R S T U V W X Y Z

Red Fang - Wires tab

e-----------------|------------------|------------------------|
B-----------------|------------------|------------------------|
G-----------------|------------------|------------------------|
D-----------------|-----999999999999-|------------------7h9-9-|
A-----------------|------------------|------------------------|
D-9-9-9-9-9-9-9-9-|-7-9-999999999999-|7-7-7-7-7-7-7h9-9-------|

e---------------------------|----------------|
B---------------------------|----------------|
G---------------------------|----------------|
D-9999999999999-------------|-7--7--7/11--10-|
A-8888888888888-8p7\5-7p5p0-|-5--7--5/9---10-|
D-9999999999999-------------|----7--------10-|
Tap to rate this tab
# A B C D E F G H I J K L M N O P Q R S T U V W X Y Z