Song name
# A B C D E F G H I J K L M N O P Q R S T U V W X Y Z

Red Fang - Blood Like Cream tab

-----------------------------------------------------------------------------
                           BLOOD LIKE CREAM - Red Fang
-----------------------------------------------------------------------------
Tabbed by: Owen556
E-mail:ogriff56@gmail.com

Tuning:D(although the band plays it in drop D, I prefer standard)

Intro
e|--------------------------------------------------------------------------|
B|--------------------------------------------------------------------------|
G|--------------------------------------------------------------------------|
D|--7--4--7/9\7--4--7--4---7/9\7--4--7--4-----------------------------------|
A|--7--4--7/9\7--4--7--4---7/9\7--4--7--4-----------------------------------|
D|--7--4--7/9\7--4--7--4---7/9\7--4--7--4-----------------------------------|

Verse
e|--------------------------------------------------------------------------|
B|--------------------------------------------------------------------------|
G|--------------------------------------------------------------------------|
D|---7--4-4-4-4-4---4-2-4-4-4-4---7-7-4-7-4--4-4-4-4--4-2-4-4-4-4-----------|
A|---7--4-4-4-4-4---4-2-4-4-4-4---7-7-4-7-4--4-4-4-4--4-2-4-4-4-4-----------|
D|---7--4-4-4-4-4---4-2-4-4-4-4---7-7-4-7-4--4-4-4-4--4-2-4-4-4-4-----------|

e|--------------------------------------------------------------------------|
B|--------------------------------------------------------------------------|
G|--------------------------------------------------------------------------|
D|---7-7-4-7---3-3-3-3-3---2-3-3-3-3--7-7-4-7-4-4-4-4-4---------4---4-------|
A|---7-7-4-7---3-3-3-3-3---2-3-3-3-3--7-7-4-7-4-4-4-4-4---2-3-4---4---4-----|
D|---7-7-4-7---3-3-3-3-3---2-3-3-3-3--7-7-4-7-4-4-4-4-4---------------------|

                           alternate ending to verse (chromatic down from A)
e|--------------------------------------------------------------------------|
B|--------------------------------------------------------------------------|
G|--------------------------------------------------------------------------|
D|--------------------------------------------------------------------------|
A|-------------------------------------------------------12-11-10-9/--------|
D|--------------------------------------------------------------------------|


Chorus
e|--------------------------------------------------------------------------|
B|--------------------------------------------------------------------------|
G|-----------------------------2--------------------------------------------|
D|--4-2-4--4-2-4--4-2-4-----4--2--4-----------------------------------------|
A|--4-2-4--4-2-4--4-2-4-----4--0--4-----------------------------------------|
D|--4-2-4--4-2-4--4-2-4-----4-----4-----------------------------------------|

e|--------------------------------------------------------------------------|
B|--------------------------------------------------------------------------|
G|-----------------------------2--------------------------------------------|
D|--4-2-4--4-2-4--4-2-4-----4--2----4-4-3-3-5-5-4-4-6-6-6-6-7-7-7-7---------|
A|--4-2-4--4-2-4--4-2-4-----4--0----4-4-3-3-5-5-4-4-6-6-6-6-7-7-7-7---------|
D|--4-2-4--4-2-4--4-2-4-----4-------4-4-3-3-5-5-4-4-6-6-6-6-7-7-7-7---------|





e|--------------------------------------------------------------------------|
B|------------7-7--6-6--8-8--7-7--9-9-9-9--10-10-10-10----------------------|
G|------------X-X--X-X--X-X--X-X--X-X-X-X--X--X--X--X-----------------------|
D|------------4-4--3-3--5-5--4-4--6-6-6-6--7--7--7--7-----------------------|
A|--------------------------------------------------------------------------|
D|--------------------------------------------------------------------------|

Solo 1
e|-----99999999----------------------------|---------------------|----------|
B|-------------12-12-12-12-----------------|---------------------|----------|
G|--------------------------12-12-11-11----|--11-11-9-9-11-11-9-9|x2---11b12|
D|--------------------------------------x2-|---------------------|----------|
A|-----------------------------------------|---------------------|----------|
E|-----------------------------------------|---------------------|----------|
     eighth notes       (ending)
e|---9--10--11--12b14-------------------------------------------------------|
B|--------------------------------------------------------------------------|
G|--------------------------------------------------------------------------|
D|--------------------------------------------------------------------------|
A|--------------------------------------------------------------------------|
E|--------------------------------------------------------------------------|

Bridge Cancer of thinking...
Here's where I like having standard tuning.  If your in standard play this, if not, 
pretend like the 6th string doesn't exist,
 this just gives a fuller, ballsier sound.  Live, the guitar part is simpler but I think 
following the
 vocal line is more melodic and fun so here ya go:

Normal Way:
e|--------------------------------------------------------------------------|
B|--------------------------------------------------------------------------|
G|--6666666---------------------------5555555-------------------------------|
D|--6666666-4444444--7777777--4444444-5555555-4444444--3333333--6666666-----|
A|--4444444-4444444--7777777--4444444-3333333-4444444--3333333--6666666-----|
D|----------4444444--7777777--4444444---------4444444--3333333--6666666-----|

How I play it in standard:following the vocal line
e|--------------------------------------------------------------------------|
B|--------------------------------------------------------------------------|
G|--1010101010101010-6666-9999-1111111111111111--66666666-------------------|
D|--1010101010101010-6666-9999-1111111111111111--66666666-------------------|
A|--8-8-8-8-8-8-8-8--4444-7777-9-9-9-9-9-9-9-9---44444444-------------------|
E|--8-8-8-8-8-8-8-8--4444-7777-9-9-9-9-9-9-9-9---44444444-------------------|

e|--------------------------------------------------------------------------|
B|--------------------------------------------------------------------------|
G|---1111111111111111-66666666-555555-88-66666------------------------------|
D|---1111111111111111-66666666-555555-88-66666------------------------------|
A|---9-9-9-9-9-9-9-9--44444444-333333-66-44444------------------------------|
E|---9-9-9-9-9-9-9-9--44444444-333333-66-44444------------------------------|

2nd time
e|--------------------------------------------------------------------------|
B|--------------------------------------------------------------------------|
G|---1111111111111111-66666666-555555-999999--1010-1111111111111111---------|
D|---1111111111111111-66666666-555555-999999--1010-1111111111111111---------|
A|---9-9-9-9-9-9-9-9--44444444-333333-777777--8-8--9-9-9-9-9-9-9-9----------|
E|---9-9-9-9-9-9-9-9--44444444-333333-777777--8-8--9-9-9-9-9-9-9-9----------|



2nd Solo

     Tremolo Pick each note
e|--------------------------------13--16------------------------------------|
B|---9-7-6-7---10-9-12-10--14-13--------------------------------------------|
G|--------------------------------------------------------------------------|
D|--------------------------------------------------------------------------|
A|--------------------------------------------------------------------------|
E|--------------------------------------------------------------------------|

e|----------10-9-7---------------9-7---------------4-5-7-5-4----------------|
B|--7-9-10----------9-10---6-7-9-----10-9-10---6-7-----------7--------------|
G|-------------------------------------------------------------6~-----------|
D|--------------------------------------------------------------------------|
A|--------------------------------------------------------------------------|
E|--------------------------------------------------------------------------|

e|-------------------------------------------------13h14-13h14-13h14-14~----|
B|--6h7-6h7-6h7--9h10-9h10-9h10--13h14-13h14-13h14--------------------------|
G|--------------------------------------------------------------------------|
D|--------------------------------------------------------------------------|
A|--------------------------------------------------------------------------|
E|--------------------------------------------------------------------------|
Tap to rate this tab
 
# A B C D E F G H I J K L M N O P Q R S T U V W X Y Z