Song name
# A B C D E F G H I J K L M N O P Q R S T U V W X Y Z

Red Fang - Dirt Wizard tab

---------------------------
  Dirt Wizard - Red Fang
---------------------------
Tabbed by: millarso (Jake Miller)
E-mail: millarso2.0@gmail.com

Tuning: Drop C

Guitar 1: Left Stereo
Guitar 2: Right Stereo

INTRO
Guitar 2
D|--------------------------|
A|--------------------------|
F|--------------------------|
C|-5-7--5-8--5-7--5-8-5-5-5-|
G|-5-7--5-8--5-7--5-8-5-5-5-|
C|-5-7--5-8--5-7--5-8-5-5-5-|

SECTION 1
Both Guitars
D|--------------------------|
A|--------------------------|
F|--------------------------|
C|-5-7--5-8--5-7--5-8-5-5-5-|x4
G|-5-7--5-8--5-7--5-8-5-5-5-|
C|-5-7--5-8--5-7--5-8-5-5-5-|

SECTION 2
Guitar 1
D|--------------------------|
A|--------------------------|
F|--------------------------|
C|--------------------------|x8
G|--------------------------|
C|-5-7--5-8--5-7--5-8-5-5-5-|
||
Guitar 2
D|-----------------------------------------------------------------------|
A|-----------------------------------------------------------------------|
F|-12-------11------111111/121111-10------101011111212-7---8--7----------|
C|--x-(x14)--x-(x8)--x-x-x--x-x-x--x-(x8)--x-x-x-x-x-x-x---x--x----------|x2
G|-10--------9-------9-9-9/10-9-9--8-------8-8-9-91010-5---6--5----------|
C|---------------------------------------------------------------7-7-5-5-|

SECTION 3
Both Guitars
D|-----------------------------------------------|
A|-----------------------------------------------|
F|-----------------------------------------------|
C|-8--8-8-8-8-9--9-9-9-9-12-12121212-7-7-7-7-7-7-|
G|-8--8-8-8-8-9--9-9-9-9-12-12121212-7-7-7-7-7-7-|
C|-8--8-8-8-8-9--9-9-9-9-12-12121212-7-7-7-7-7-7-|

Guitar 1
D|-----------------------------------------|
A|-----------------------------------------|
F|-----------------------------------------|
C|-8--8-8-8-8-9--9-9-9-9-7---7-7--7-7~~~~~-|
G|-8--8-8-8-8-9--9-9-9-9-------------------|
C|-8--8-8-8-8-9--9-9-9-9-------------------|
||
Guitar 2
D|----------------------------------------------------|
A|----------------------------------(gradually-bend)--|
F|-----------------------------------12-12-12-12-12---|
C|-8--8-8-8-8-9--9-9-9-9-12-12121212------------------|
G|-8--8-8-8-8-9--9-9-9-9-12-12121212------------------|
C|-8--8-8-8-8-9--9-9-9-9-12-12121212----------------0-|

Both Guitars
D|-----------------------------------------------|
A|-----------------------------------------------|
F|-----------------------------------------------|
C|-8--8-8-8-8-9--9-9-9-9-12-12121212-7-7-7-7-7-7-|
G|-8--8-8-8-8-9--9-9-9-9-12-12121212-7-7-7-7-7-7-|
C|-8--8-8-8-8-9--9-9-9-9-12-12121212-7-7-7-7-7-7-|

Guitar 1
D|---------------------------5--5-----5--5-----5--5------------|
A|---------------------------x--x-----x--x-----x--x------------|
F|-----------------------2---2--2-2---2--2-2---2--2-2--2p0-2p0-|
C|-8--8-8-8-8-9--9-9-9-9-0--------0--------0--------0----------|
G|-8--8-8-8-8-9--9-9-9-9-0--------0--------0--------0----------|
C|-8--8-8-8-8-9--9-9-9-9-0--------0--------0--------0----------|
||
Guitar 2
D|-------------------------------------------------------------|
A|-------------------------------------------------------------|
F|-------------------------------------------------------------|
C|-8--8-8-8-8-9--9-9-9-9-7--------7--------7--------7--7\5-7\5-|
G|-8--8-8-8-8-9--9-9-9-9-5--------5--------5--------5--5\3-5\3-|
C|-8--8-8-8-8-9--9-9-9-9-0--------0--------0--------0----------|

REPEAT SECTION 1

REPEAT SECTION 2

REPEAT SECTION 3, but replace last bar with
Both Guitars
D|-----------------------------------|
A|-----------------------------------|
F|-2-----2-----2-----2---------------|
C|-0-----0-----0-----0--\\\\\\\\\\\\-|
G|-0-----0-----0-----0--\pick-slide\-|
C|-0-----0-----0-----0--\\\\\\\\\\\\-|

SECTION 4
Guitar 1
D|-----------------------------------|
A|-----------------------------------|
F|-10--10-9--7-----------------------|
C|--x---x-x--x-9---7-7-9-9b10--7-7-7-|x4
G|--8---8-7--5-9---7-7-9-9b10--7-7-7-|
C|-------------9---7-7-9-9b10--7-7-7-|
||
Guitar 2
D|-----------------------------------|
A|-----------------------------------|
F|-10--10-9--7\4---4-4-4-4b5---4-4-4-|
C|--x---x-x--x-x---x-x-x-x-----x-x-x-|x4
G|--8---8-7--5\2---2-2-2-2b3---2-2-2-|
C|-----------------------------------|

Guitar 1
D|---------------------------------------------------------------------|
A|---------------------------------------------------------------------|
F|-10-10-10-9--7---------------------10-10-10-9--7---------------------|
C|--x--x--x-x--x-9---7-7-7-9---7-7-7--x--x--x-x--x-9---7-7-7-9---7-7-7-|
G|--8--8--8-7--5-9---7-7-7-9---7-7-7--8--8--8-7--5-9---7-7-7-9---7-7-7-|
C|---------------9---7-7-7-9---7-7-7---------------9---7-7-7-9---7-7-7-|
||
Guitar 2
D|-----------------------------------------------------------------------------|
A|-----------------------------------------------------------------------------|
F|-10--7h9--7h9p7-9--7--7-9-7-9-7-9b10r9-7-10--7h9-7h9p7-9--7--7-9-7-9b10r9-7--|
C|--------------------9--------------------------------------9-----------------|
G|-----------------------------------------------------------------------------|
C|-----------------------------------------------------------------------------|

Guitar 1
D|------------------------------------------------------------------------|
A|------------------------------------------------------------------------|
F|-10-10-10-9--7---------------------10-10-10-9--7-10----10----10----10---|
C|--x--x--x-x--x-9---7-7-7-9---7-7-7--x--x--x-x--x--x-----x-----x-----x---|
G|--8--8--8-7--5-9---7-7-7-9---7-7-7--8--8--8-7--5--8-----8-----8-----8---|
C|---------------9---7-7-7-9---7-7-7--------------------------------------|
||
Guitar 2
D|-----------------------------------------------------------------------------|
A|-----------------------------------------------------------------------------|
F|-10--7h9-7h9p7-9--7--7-9-7-9-7-9b10r9-7-10--7h9-7h9p7-10----10----10----10---|
C|-------------------9-----------------------------------9-----9-----9-----9---|
G|-------------------------------------------------------8-----8-----8-----8---|
C|-------------------------------------------------------9-----9-----9-----9---|

SECTION 5
Guitar 1
D|---------------------------------------------------------------------|
A|---------------------------------------------------------------------|
F|-10b---10b---10b---10b-10-10-10-10-10b---10b---10b---10b-10-10-10-10-|
C|--x-----x-----x-----x---x--x--x--x--x-----x-----x-----x---x--x--x--x-|
G|--8b----8b----8b----8b--8--8--8--8--8b----8b----8b----8b--8--8--8--8-|
C|---------------------------------------------------------------------|
||
Guitar 2
D|---------------------------------------------------------------------|
A|---------------------------------------------------------------------|
F|-10----10----10----10--10-10-10-10-10----10----10----10--10-10-10-10-|
C|------------------------9--9--9--9------------------------9--9--9--9-|
G|------------------------8--8--8--8------------------------8--8--8--8-|
C|---------------------------------------------------------------------|

SECTION 6
Guitar 1
D|-----------------------------------------------|
A|-----------------------------------------------|
F|-10~---------------------------------10///////-|
C|--x--(keep-strumming,-then-slide-up)--x--------|
G|--8~-(while-strumming-near-the-end-)--8///////-|
C|-----------------------------------------------|
||
Guitar 2
D|--------------------------|
A|--------------------------|
F|--------------------------|
C|-5-7--5-8--5-7--5-8-5-5-5-|x4
G|-5-7--5-8--5-7--5-8-5-5-5-|
C|-5-7--5-8--5-7--5-8-5-5-5-|

Both Guitars
D|--------------------------|
A|--------------------------|
F|--------------------------|
C|-5-7--5-8--5-7--5-8-5-5-5-|x4
G|-5-7--5-8--5-7--5-8-5-5-5-|
C|-5-7--5-8--5-7--5-8-5-5-5-|

D|--------------------|
A|--------------------|
F|--------------------|
C|-5-7-------------\\-|
G|-5-7-(let-ring)--\\-|
C|-5-7-------------\\-|

Pretty simple song actually, but grungy and fun to play.
If you see any issues, let me know.
Please rate & comment.
Thanks,
millarso

************************************

| /   slide up
| \   slide down
| h   hammer-on
| p   pull-off
| ~   vibrato
| *   pinch harmonic
| x   Mute note
| b   Bend
| br  Bend release
| brb Bend release bend

************************************
Tap to rate this tab
# A B C D E F G H I J K L M N O P Q R S T U V W X Y Z