Song name
# A B C D E F G H I J K L M N O P Q R S T U V W X Y Z

Red Fang - Wires tab

---------------------
  Wires - Red Fang
---------------------
Tabbed by: millarso (Jake Miller)
E-mail: millarso2.0@gmail.com

Tuning: Drop D

Guitar 1: Left Stereo
Guitar 2: Right Stereo

SECTION 1
Guitar 1 (overdriven, a little fuzz)
E|----------------------------------------------------|
B|----------------------------------------------------|
G|----------------------------------(24-hits)---------|
D|---------------------------999999999999999999999999-|
A|---------------------------999999999999999999999999-|
D|-9--9--9--9--9--9--9--9--7-999999999999999999999999-|

E|--------------------------------------------------------------|
B|--------------------------------------------------------------|
G|--------------------------------------------------------------|
D|-------------------------7h9-9-999999999999999999-------------|
A|-------------------------------888888888888888888-8p7\5-7p5p0-|
D|-7--7--7--7--7--7--7h9-9-------999999999999999999-------------|

REPEAT SECTION 1

TRANSITION 1
Both Guitars
E|---------------|
B|---------------|
G|-7-----11------|
D|-7--7--11--10--|
A|-5--7---9--10--|
D|----7------10--|

SECTION 2A
Both Guitars (The parentheses indicate that those notes start the next line)
E|---------------------------------------------------------------------------------|
B|---------------------------------------------------------------------------------|
G|---------------------------------------------------------------------------------|
D|-9--9--9--9-7h9--9--9--9-7h9--9--9--9--9--9--9--9-7h9--9--9--9--9--9--9--9-7h(9)-|
A|-9--9--9--9-7h9--9--9--9-7h9--9--9--9--9--9--9--9-7h9--9--9--9--9--9--9--9-7h(9)-|
D|-9--9--9--9-7h9--9--9--9-7h9--9--9--9--9--9--9--9-7h9--9--9--9--9--9--9--9-7h(9)-|

Guitar 1
E|-------------------------------------------------------------------------|
B|-------------------------------------------------------------------------|
G|-------------9b10--7~-------------------------------------------9b10--7--|
D|-9--9--9--9--------------8--8--8--8--8--8--8--8--8--8--8--8--8-----------|
A|-9--9--9--9--------------8--8--8--8--8--8--8--8--8--8--8--8--8-----------|
D|-9--9--9--9--------------8--8--8--8--8--8--8--8--8--8--8--8--8-----------|
||
Guitar 2
E|-------------------------------------------------------------------------|
B|-------------------------------------------------------------------------|
G|-------------------------------------------------------------------------|
D|-9--9--9--9--9--9--9--9--8--8--8--8--8--8--8--8--8--8--8--8--8--8--8--8--|
A|-9--9--9--9--9--9--9--9--8--8--8--8--8--8--8--8--8--8--8--8--8--8--8--8--|
D|-9--9--9--9--9--9--9--9--8--8--8--8--8--8--8--8--8--8--8--8--8--8--8--8--|

SECTION 2B
Guitar 1
E|------------------------------------------------------------------------------|
B|------------------------------------------------------------------------------|
G|---------------------------------------------------------------------7--9-----|
D|-9--9--9--9--9--9--9--9-7h9--9--9--9--9--9--9--9-7h9--9--9--9--7--9--------9~-|
A|-9--9--9--9--9--9--9--9-7h9--9--9--9--9--9--9--9-7h9--9--9--9-----------------|
D|-9--9--9--9--9--9--9--9-7h9--9--9--9--9--9--9--9-7h9--9--9--9-----------------|
||
Guitar 2
E|--------------------------------------------------------------------------------|
B|--------------------------------------------------------------------------------|
G|--------------------------------------------------------------------------------|
D|-9--9--9--9--9--9--9--9-7h9--9--9--9--9--9--9--9-7h9--9--9--9--9--9--9--9-7h(9)-|
A|-9--9--9--9--9--9--9--9-7h9--9--9--9--9--9--9--9-7h9--9--9--9--9--9--9--9-7h(9)-|
D|-9--9--9--9--9--9--9--9-7h9--9--9--9--9--9--9--9-7h9--9--9--9--9--9--9--9-7h(9)-|

Guitar 1
E|-------------------------------------------------------------------------|
B|-------------------------------------------------------------------------|
G|-------------------7~-------------------------------------------9b10--7--|
D|-(9~)--------7-9---------8--8--8--8--8--8--8--8--8--8--8--8--8-----------|
A|-------------------------8--8--8--8--8--8--8--8--8--8--8--8--8-----------|
D|-------------------------8--8--8--8--8--8--8--8--8--8--8--8--8-----------|

E|-------------------------------------------------------------------------|
B|-------------------------------------------------------------------------|
G|-------------------------------------------------------------------------|
D|-9--9--9--9--9--9--9--9--8--8--8--8--8--8--8--8--8--8--8--8--8--8--8--8--|
A|-9--9--9--9--9--9--9--9--8--8--8--8--8--8--8--8--8--8--8--8--8--8--8--8--|
D|-9--9--9--9--9--9--9--9--8--8--8--8--8--8--8--8--8--8--8--8--8--8--8--8--|

SECTION 3
Both Guitars
E|--------------------------------------------------|
B|--------------------------------------------------|
G|-------------------------------------11-11--------|
D|-9--9--9--9--9--9--9--9--12-12-12-12-11-11--8-4-0-|
A|-9--9--9--9--9--9--9--9--12-12-12-12--9--9--8-4-0-|
D|-9--9--9--9--9--9--9--9--12-12-12-12--------8-4-0-|

REPEAT SECTION 1 x2, but Guitar 2 strikes this chord on first note both repeats...
E|-----|
B|-----|
G|-----|
D|-9-\-|
A|-9-\-|
D|-9-\-|

REPEAT TRANSITION 1

SECTION 2C
Both Guitars
E|--------------------------------------------------------------------------------|
B|--------------------------------------------------------------------------------|
G|--------------------------------------------------------------------------------|
D|-9--9--9--9--9--9--9--9-7h9--9--9--9--9--9--9--9-7h9--9--9--9--9--9--9--9-7h(9)-|
A|-9--9--9--9--9--9--9--9-7h9--9--9--9--9--9--9--9-7h9--9--9--9--9--9--9--9-7h(9)-|
D|-9--9--9--9--9--9--9--9-7h9--9--9--9--9--9--9--9-7h9--9--9--9--9--9--9--9-7h(9)-|

Guitar 1
E|-------------------------------------------------------------------------|
B|-------------------------------------------------------------------------|
G|-------------------------------------------------------------9b10---7~---|
D|-9--9--9--9--9--9--9--9--8--8--8--8--8--8--8--8--8--8--8--8--------------|
A|-9--9--9--9--9--9--9--9--8--8--8--8--8--8--8--8--8--8--8--8--------------|
D|-9--9--9--9--9--9--9--9--8--8--8--8--8--8--8--8--8--8--8--8--------------|
||
Guitar 2
E|-------------------------------------------------------------------------|
B|-------------------------------------------------------------------------|
G|-------------------------------------------------------------------------|
D|-9--9--9--9--9--9--9--9--8--8--8--8--8--8--8--8--8--8--8--8--8--8--8--8--|
A|-9--9--9--9--9--9--9--9--8--8--8--8--8--8--8--8--8--8--8--8--8--8--8--8--|
D|-9--9--9--9--9--9--9--9--8--8--8--8--8--8--8--8--8--8--8--8--8--8--8--8--|

SECTION 2D
Guitar 1
E|---------------------------------------------------------------------------------|
B|---------------------------------------------------------------------------------|
G|----------------------7~--------------7-----9--7-------------------7--9b10-7-----|
D|-9--9--9--9--9--7--9------9--9--9--9-----9--------9~----------7h9------------9~--|
A|-9--9--9--9--9------------9--9--9--9---------------------------------------------|
D|-9--9--9--9--9------------9--9--9--9---------------------------------------------|
||
Guitar 2
E|---------------------------------------------------------------------------------|
B|---------------------------------------------------------------------------------|
G|---------------------------------------------------------------------------------|
D|-9--9--9--9--9--9--9--9-7h9--9--9--9--9--9--9--9-7h9--9--9--9-7h9--9--9--9-7h(9)-|
A|-9--9--9--9--9--9--9--9-7h9--9--9--9--9--9--9--9-7h9--9--9--9-7h9--9--9--9-7h(9)-|
D|-9--9--9--9--9--9--9--9-7h9--9--9--9--9--9--9--9-7h9--9--9--9-7h9--9--9--9-7h(9)-|

Guitar 1
E|----------------------------------------------------------------------------|
B|----------------------------------------------------------------------------|
G|-----------------7----------------------------------------------------------|
D|-(9)---------7h9---9--7777--8--8--8--8--8--8--8--8--8--8--8--8--8--8--8--8--|
A|----------------------------8--8--8--8--8--8--8--8--8--8--8--8--8--8--8--8--|
D|----------------------------8--8--8--8--8--8--8--8--8--8--8--8--8--8--8--8--|

Guitar 2
E|----------------------------------------------------------------------------|
B|----------------------------------------------------------------------------|
G|----------------------------------------------------------------------------|
D|-9--9-7h9--9-7h9999-7h9999--8--8--8--8--8--8--8--8--8--8--8--8--8--8--8--8--|
A|-9--9-7h9--9-7h9999-7h9999--8--8--8--8--8--8--8--8--8--8--8--8--8--8--8--8--|     
D|-9--9-7h9--9-7h9999-7h9999--8--8--8--8--8--8--8--8--8--8--8--8--8--8--8--8--|

REPEAT SECTION 3

SECTION 4
Guitar 1 (don't let notes ring when changing strings)
E|--------------------------------------------------|
B|--------------------------------------------------|
G|----------------4---------4-2~-----4--------------|
D|-4---0--------0---4---0-4-------------3----2-0----|x2
A|-------2----2-------2-----------------------------|
D|--------------------------------------------------|
||
Guitar 2 (don't let notes ring when changing strings)
E|--------------------------------------------------|
B|--------------------------------------------------|
G|--------------------------------------------------|
D|-0--------------0-------0-4--------0--3----2------|x2
A|-----2--------2---2---2-----4~--------------------|
D|-------4----4-------4------------------------0----|

Guitar 1
E|-----------------------------------------------|
B|-----------------------------------------------|
G|-------------------------6--------7----9b11----|
D|-4---0-5---5-4--5--7--8--------9---------------|
A|-----------------------------------------------|
D|-----------------------------------------------|
||
Guitar 2
E|-----------------------------------------------|
B|-----------------------------------------------|
G|-----------------------------------------------|
D|-0---------------------------------------------|
A|-----2-------------0--1--4-----2--5----7b9-\---|
D|-------5---5-4--5------------------------------|

Guitar 1 (don't let notes ring when changing strings)
E|--------------------------------------------------------------|
B|--------------------------------------------------------------|
G|----------------4---------4-2~-----4--------------7----11-----|
D|-4---0--------0---4---0-4-------------3----2-0----7--7-11-10--|
A|-------2----2-------2-----------------------------5--7--9-10--|
D|-----------------------------------------------------7----10--|
||
Guitar 2 (don't let notes ring when changing strings)
E|--------------------------------------------------------------|
B|--------------------------------------------------------------|
G|--------------------------------------------------7----11-----|
D|-0--------------0-------0-4--------0--3----2-4~---7--7-11-10--|
A|-----2--------2---2---2-----4~--------------------5--7--9-10--|
D|-------4----4-------4--------------------------------7----10--|

SECTION 5
Both Guitars
E|-----------------------------------------------------|
B|-----------------------------------------------------|
G|-----------------------------------------------------|
D|-9---7-7h9-9---7-7h9---------------4---5-4h5-4--2--0-|x4
A|-9---7-7h9-9---7-7h9-7h9p7---------4---5-4h5-4--2--0-|
D|-9---7-7h9-9---7-7h9-------9-7-5-7-4---5-4h5-4--2--0-|

REPEAT TRANSITION 1

SECTION 5 continues to go on with several lead parts that join in...

SOLOS
Guitar 1
E|---------------------------------------------------------------------------------------------|
B|-7-------------------------------------------------------------------------------------------|
G|-9bb11------7--6h7-6~------9-h11--9----------7--7h9-6--6h7-6~--------7h9-9b11-9b11-9b11-9b11-|
D|-------------------------------------7-----7---------------------7h9-------------------------|
A|-----------------------------------------9---------------------------------------------------|
D|---------------------------------------------------------------------------------------------|

Guitar 1
E|-----------------------------------------------------------------------|
B|-----------------------------------------------------------------------|
G|-9b11-r9-7---7h9--------------------------------7-9b11-r9--7--7--6h7-6-|
D|-----------------7h9-9~---7h9-7~-----7-9-7h9~--------------------------|
A|-----------------------------------------------------------------------|
D|-----------------------------------------------------------------------|
||
Guitar 2
E|-----------------------------------------------------------------------------------------------|
B|-----------------------------------------------------------------------------------------------|
G|-9-9-9-9---9-9-9-9---9-9-9-9-9\7--7--7--6--6h7-6---9-9-9-9---9-9-9-9---9--7/11---11--11--9--11-|
D|-----------------------------------------------------------------------------------------------|
A|-----------------------------------------------------------------------------------------------|
D|-----------------------------------------------------------------------------------------------|

Guitar 1
E|-----------------------------------------------------------------------|
B|-----------------------------------------------------------------------|
G|-7h9-9---9h11-11~------------11~--------------------11--11----11b12r11-|
D|-----------------------------------------------------------------------|
A|-----------------------------------------------------------------------|
D|-----------------------------------------------------------------------|
||
Guitar 2
E|-----------------------------------------------------------------------------|
B|-----------------------------------------------------------------------------|
G|-11/14---14/16---16-16-16-16-16-16-16-16-16-16-16-16-16-16-16-16-16-16-16-16-|
D|-----------------------------19-19-19-19-------------------------19-19-19-19-|
A|-----------------------------------------------------------------------------|
D|-----------------------------------------------------------------------------|

Guitar 1
E|----------------------------------------------------------------------------------------------|
B|------------------------------------------------------------12---12---12-10-12-12b14--14r12-\-|
G|-11-9---------------------------9-11----11--11h13--13h14-14-----------------------------------|
D|------12-11--7/9---11b12r11--12---------------------------------------------------------------|
A|----------------------------------------------------------------------------------------------|
D|----------------------------------------------------------------------------------------------|
||
Guitar 2 (not sure about the chaotic strumming, possibly some delay in there mixing it up)
E|----------------------------------------------------------------------------------------------|
B|--------------------------------------------17b-----------------------------------------------|
G|-16b18-18-18-18-18-18-18-18-18-18-18-18r-19-19b-(just-strum-this-and-bend-all-over-the-place)-|
D|----------------------------------------------------------------------------------------------|
A|----------------------------------------------------------------------------------------------|
D|----------------------------------------------------------------------------------------------|

Guitar 1
E|----------------------------------------------------------------------------------|
B|----------------------------------------------------------------------------------|
G|-----7-------7-9b11r9--7---6------------------------------------------------------|
D|-7-9-----7h9-------------------9---7-7h9-9---7-7h9---------------4--5-4h5-4--2--0-|
A|-------------------------------9---7-7h9-9---7-7h9-7h9p7---------4--5-4h5-4--2--0-|
D|-------------------------------9---7-7h9-9---7-7h9-------9-7-5-7-4--5-4h5-4--2--0-|
||
Guitar 2
E|--------------------------------------------------|
B|-(keep-bending-and-strumming-like-last-line)------|
G|--------------------------------------------------|
D|--------------------------------------------------|
A|--------------------------------------------------|
D|--------------------------------------------------|

Guitar 1
E|-------------------------------------------------------------------------------------|
B|-------------------------------------------------------------------------------------|
G|--------------------------------------------------------------------------------7b---|
D|-9---7-7h9-9---7-7h9---------------4--5-4h5-4--2--0---------------------7h9-9------9-|
A|-9---7-7h9-9---7-7h9-7h9p7---------4--5-4h5-4--2--0-----------------7h9--------------|
D|-9---7-7h9-9---7-7h9-------9-7-5-7-4--5-4h5-4--2--0--9--7h9-9---7h9------------------|
||
Guitar 2
E|-----------------------------------------------------------------|
B|-(keep-bending-and-strumming-those-high-notes-until-end-of-song)-|
G|-----------------------------------------------------------------|
D|-----------------------------------------------------------------|
A|-----------------------------------------------------------------|
D|-----------------------------------------------------------------|

Guitar 1
E|---------------------------------------------------------------------|
B|---------------------------------------------------------------------|
G|-7h9-9b11r9~---7---7/9-9-7\6--6h7-6~----------7---9--9b11r9b11r9b11\-|
D|---------------------------------------7--7h9------------------------|
A|---------------------------------------------------------------------|
D|---------------------------------------------------------------------|

The song sort of abruptly stops in chaos. My advice to you is to just mess with
those notes for Guitar 1 and not try to stick to what I wrote exactly. The high 
notes in Guitar 2 are hard to pick apart because of the chaotic bending, so I
would just find a high dissonance, throw on some delay, and bend it all over the place.
Fun song. Better make sure you have a fuzz pedal.
Please rate & comment.
Thanks,
millarso

************************************

| /   slide up
| \   slide down
| h   hammer-on
| p   pull-off
| ~   vibrato
| +   harmonic
| x   Mute note
| b   Bend
| pb  Pre-bend
| br  Bend release
| pbr Pre-bend release
| brb Bend release bend

************************************
Tap to rate this tab
# A B C D E F G H I J K L M N O P Q R S T U V W X Y Z