Song name
# A B C D E F G H I J K L M N O P Q R S T U V W X Y Z

Red Fang - Doen tab

DOEN-Red Fang


Brilliant song, tabbed by ear
"DOEN" or "dead of endless night"
Drop C tuning
Enjoy

INTRO/VERSE:
|---------------------------------------------------|
|---------------------------------------------------|
|---------------------------------------------------|
|---------------------------------------------------|  REPEAT UNTIL CHORUS
|---3---5---6---6---5---3---5-----------------------|
|-----------------------------------0--0--0--0------|

CHORUS:

|---------------------------------------------------------------------------------------|
|---------------------------------------------------------------------------------------|
|------/palm muted\---------------------------------------------------------------------|
|----3---3---3---3-3-3---3---0---/10---12-----12--12--12----12--10--10------------------|
|----3---3---3---3-3-3---3---0---/10---12-----12--12--12----12--10--10------------------|
|----3---3---3---3-3-3---3---0---/10---12-----12--12--12----12--10--10------------------|

Play this over the last repeat of the chorus riff......
|-----------------------------|
|-----------------------------|
|----9b--9b------7--7---------|
|-----------------------------|
|-----------------------------|
|-----------------------------|


The first riff plays behind the solo(which I'm not going to tab)
And that's basically the song

Lyrics:
Winter is your doom, sunset comes too soon
In lands of midday black,undead hordes attack

Bells of death toll
Chaos unfolds
Humans bled dry
No one survives

Winter is your doom,sunset comes to soon
Endless feasts of blood,where there is no sun

Bells of death toll
chaos unfolds
Humans bled dry
No one survives


Enjoy:)
Tap to rate this tab
# A B C D E F G H I J K L M N O P Q R S T U V W X Y Z