Song name
# A B C D E F G H I J K L M N O P Q R S T U V W X Y Z

Red Harvest - Internal Punishment Programs tab

                         Internal punishment programs                           


                                                                     Red harvest
Guitar 1



                                                            PM PM PM     
     Q.     Q.     Q       Q    Q    Q.     E     Q    Q    E  E  E  E   
D||---------------------|----------------------|------------------------|
A||---------------------|----------------------|------------------------|
F||---------------------|----------------------|------------------------|
C||---------4-----------|--5----6-----------4--|--L---------------------|
G||--2------3------2----|--4----5----2------3--|--L----2----2--2--2-----|
D||--0-------------0----|------------0---------|-------0----0--0--0-----|


                                                         PM PM PM     
  Q.     Q.     Q       Q    Q    Q.     E     Q    Q    E  E  E  E   
---------------------|----------------------|------------------------|
---------------------|----------------------|------------------------|
---------------------|----------------------|------------------------|
---------4-----------|--5----6-----------4--|--L---------------------|
--2------3------2----|--4----5----2------3--|--L----2----2--2--2-----|
--0-------------0----|------------0---------|-------0----0--0--0-----|


                                                         PM PM PM     
  Q.     Q.     Q       Q    Q    Q.     E     Q    Q    E  E  E  E   
---------------------|----------------------|------------------------|
---------------------|----------------------|------------------------|
---------------------|----------------------|------------------------|
---------4-----------|--5----6-----------4--|--L---------------------|
--2------3------2----|--4----5----2------3--|--L----2----2--2--2-----|
--0-------------0----|------------0---------|-------0----0--0--0-----|


                                                         PM PM PM     
  Q.     Q.     Q       Q    Q    Q.     E     Q    Q    E  E  E  E   
---------------------|----------------------|------------------------|
---------------------|----------------------|------------------------|
---------------------|----------------------|------------------------|
---------4-----------|--5----6-----------4--|--L---------------------|
--2------3------2----|--4----5----2------3--|--L----2----2--2--2-----|
--0-------------0----|------------0---------|-------0----0--0--0-----|


                                                         PM PM PM     
  Q.     Q.     Q       Q    Q    Q.     E     Q    Q    E  E  E  E   
---------------------|----------------------|------------------------|
---------------------|----------------------|------------------------|
---------------------|----------------------|------------------------|
---------4-----------|--5----6-----------4--|--L---------------------|
--2------3------2----|--4----5----2------3--|--L----2----2--2--2-----|
--0-------------0----|------------0---------|-------0----0--0--0-----|


                                                         PM PM PM     
  Q.     Q.     Q       Q    Q    Q.     E     Q    Q    E  E  E  E   
---------------------|----------------------|------------------------|
---------------------|----------------------|------------------------|
---------------------|----------------------|------------------------|
---------4-----------|--5----6-----------4--|--L---------------------|
--2------3------2----|--4----5----2------3--|--L----2----2--2--2-----|
--0-------------0----|------------0---------|-------0----0--0--0-----|


                                                         PM PM PM     
  Q.     Q.     Q       Q    Q    Q.     E     Q    Q    E  E  E  E   
---------------------|----------------------|------------------------|
---------------------|----------------------|------------------------|
---------------------|----------------------|------------------------|
---------4-----------|--5----6-----------4--|--L---------------------|
--2------3------2----|--4----5----2------3--|--L----2----2--2--2-----|
--0-------------0----|------------0---------|-------0----0--0--0-----|


                                                         PM PM PM     
  Q.     Q.     Q       Q    Q    Q.     E     Q    Q    E  E  E  E   
---------------------|----------------------|------------------------|
---------------------|----------------------|------------------------|
---------------------|----------------------|------------------------|
---------4-----------|--5----6-----------4--|--L---------------------|
--2------3------2----|--4----5----2------3--|--L----2----2--2--2-----|
--0-------------0----|------------0---------|-------0----0--0--0-----|


                                                         PM PM PM     
  Q.     Q.     Q       Q    Q    Q.     E     Q    Q    E  E  E  E   
---------------------|----------------------|------------------------|
---------------------|----------------------|------------------------|
---------------------|----------------------|------------------------|
---------4-----------|--5----6-----------4--|--L---------------------|
--2------3------2----|--4----5----2------3--|--L----2----2--2--2-----|
--0-------------0----|------------0---------|-------0----0--0--0-----|


                                                         PM PM PM     
  Q.     Q.     Q       Q    Q    Q.     E     Q    Q    E  E  E  E   
---------------------|----------------------|------------------------|
---------------------|----------------------|------------------------|
---------------------|----------------------|------------------------|
---------4-----------|--5----6-----------4--|--L---------------------|
--2------3------2----|--4----5----2------3--|--L----2----2--2--2-----|
--0-------------0----|------------0---------|-------0----0--0--0-----|


                                                         PM PM PM     
  Q.     Q.     Q       Q    Q    Q.     E     Q    Q    E  E  E  E   
---------------------|----------------------|------------------------|
---------------------|----------------------|------------------------|
---------------------|----------------------|------------------------|
---------4-----------|--5----6-----------4--|--L---------------------|
--2------3------2----|--4----5----2------3--|--L----2----2--2--2-----|
--0-------------0----|------------0---------|-------0----0--0--0-----|


                                                         PM PM PM     
  Q.     Q.     Q       Q    Q    Q.     E     Q    Q    E  E  E  E   
---------------------|----------------------|------------------------|
---------------------|----------------------|------------------------|
---------------------|----------------------|------------------------|
---------4-----------|--5----6-----------4--|--L---------------------|
--2------3------2----|--4----5----2------3--|--L----2----2--2--2-----|
--0-------------0----|------------0---------|-------0----0--0--0-----|


                                                         PM PM PM     
  Q.     Q.     Q       Q    Q    Q.     E     Q    Q    E  E  E  E   
---------------------|----------------------|------------------------|
---------------------|----------------------|------------------------|
---------------------|----------------------|------------------------|
---------4-----------|--5----6-----------4--|--L---------------------|
--2------3------2----|--4----5----2------3--|--L----2----2--2--2-----|
--0-------------0----|------------0---------|-------0----0--0--0-----|


                                                         PM PM PM     
  Q.     Q.     Q       Q    Q    Q.     E     Q    Q    E  E  E  E   
---------------------|----------------------|------------------------|
---------------------|----------------------|------------------------|
---------------------|----------------------|------------------------|
---------4-----------|--5----6-----------4--|--L---------------------|
--2------3------2----|--4----5----2------3--|--L----2----2--2--2-----|
--0-------------0----|------------0---------|-------0----0--0--0-----|


                                                         PM PM PM     
  Q.     Q.     Q       Q    Q    Q.     E     Q    Q    E  E  E  E   
---------------------|----------------------|------------------------|
---------------------|----------------------|------------------------|
---------------------|----------------------|------------------------|
---------4-----------|--5----6-----------4--|--L---------------------|
--2------3------2----|--4----5----2------3--|--L----2----2--2--2-----|
--0-------------0----|------------0---------|-------0----0--0--0-----|


                                                         PM PM PM     
  Q.     Q.     Q       Q    Q    Q.     E     Q    Q    E  E  E  E   
---------------------|----------------------|------------------------|
---------------------|----------------------|------------------------|
---------------------|----------------------|------------------------|
---------4-----------|--5----6-----------4--|--L---------------------|
--2------3------2----|--4----5----2------3--|--L----2----2--2--2-----|
--0-------------0----|------------0---------|-------0----0--0--0-----|


  W                   W                   W                   W                 
-------------------|-------------------|-------------------|-------------------|
-------------------|-------------------|-------------------|-------------------|
-------------------|-------------------|-------------------|-------------------|
-------------------|-------------------|-------------------|-------------------|
--4----------------|--L----------------|--L----------------|--L----------------|
--2----------------|--L----------------|--L----------------|--L----------------|


  W                   W                   W                   W                 
-------------------|-------------------|-------------------|-------------------|
-------------------|-------------------|-------------------|-------------------|
-------------------|-------------------|-------------------|-------------------|
-------------------|-------------------|-------------------|-------------------|
--2----------------|--L----------------|--L----------------|--L----------------|
--0----------------|--L----------------|--L----------------|--L----------------|


  W                   W                   W                   W                 
-------------------|-------------------|-------------------|-------------------|
-------------------|-------------------|-------------------|-------------------|
-------------------|-------------------|-------------------|-------------------|
-------------------|-------------------|-------------------|-------------------|
--4----------------|--L----------------|--L----------------|--L----------------|
--2----------------|--L----------------|--L----------------|--L----------------|


  W                   W                   W                   W                 
-------------------|-------------------|-------------------|-------------------|
-------------------|-------------------|-------------------|-------------------|
-------------------|-------------------|-------------------|-------------------|
-------------------|-------------------|-------------------|-------------------|
--2----------------|--L----------------|--L----------------|--L----------------|
--0----------------|--L----------------|--L----------------|--L----------------|


  W                   W                   W                   W                 
-------------------|-------------------|-------------------|-------------------|
-------------------|-------------------|-------------------|-------------------|
-------------------|-------------------|-------------------|-------------------|
-------------------|-------------------|-------------------|-------------------|
--4----------------|--L----------------|--8----------------|--L----------------|
--2----------------|--L----------------|--6----------------|--L----------------|


  W                   W                   W                   W                 
-------------------|-------------------|-------------------|-------------------|
-------------------|-------------------|-------------------|-------------------|
-------------------|-------------------|-------------------|-------------------|
-------------------|-------------------|-------------------|-------------------|
--2----------------|--L----------------|--L----------------|--L----------------|
--0----------------|--L----------------|--L----------------|--L----------------|


  W                   W                   W                   W                 
-------------------|-------------------|-------------------|-------------------|
-------------------|-------------------|-------------------|-------------------|
-------------------|-------------------|-------------------|-------------------|
-------------------|-------------------|-------------------|-------------------|
--4----------------|--L----------------|--8----------------|--L----------------|
--2----------------|--L----------------|--6----------------|--L----------------|


  W                   W                   W                   W                 
-------------------|-------------------|-------------------|-------------------|
-------------------|-------------------|-------------------|-------------------|
-------------------|-------------------|-------------------|-------------------|
--5----------------|--L----------------|--L----------------|--L----------------|
--3----------------|--L----------------|--L----------------|--L----------------|
--3----------------|--L----------------|--L----------------|--L----------------|


  W                   W                   W                   W                 
-------------------|-------------------|-------------------|-------------------|
-------------------|-------------------|-------------------|-------------------|
-------------------|-------------------|-------------------|-------------------|
-------------------|-------------------|-------------------|-------------------|
--4----------------|--L----------------|--8----------------|--L----------------|
--2----------------|--L----------------|--6----------------|--L----------------|


  W                   W                   W                   W                 
-------------------|-------------------|-------------------|-------------------|
-------------------|-------------------|-------------------|-------------------|
-------------------|-------------------|-------------------|-------------------|
-------------------|-------------------|-------------------|-------------------|
--2----------------|--L----------------|--L----------------|--L----------------|
--0----------------|--L----------------|--L----------------|--L----------------|


  W                   W                   W                   W                 
-------------------|-------------------|-------------------|-------------------|
-------------------|-------------------|-------------------|-------------------|
-------------------|-------------------|-------------------|-------------------|
-------------------|-------------------|-------------------|-------------------|
--4----------------|--L----------------|--8----------------|--L----------------|
--2----------------|--L----------------|--6----------------|--L----------------|


  W                   W                   W                   W                 
-------------------|-------------------|-------------------|-------------------|
-------------------|-------------------|-------------------|-------------------|
-------------------|-------------------|-------------------|-------------------|
--5----------------|--L----------------|--L----------------|--L----------------|
--3----------------|--L----------------|--L----------------|--L----------------|
--3----------------|--L----------------|--L----------------|--L----------------|


                                                         PM PM PM     
  Q.     Q.     Q       Q    Q    Q.     E     Q    Q    E  E  E  E   
---------------------|----------------------|------------------------|
---------------------|----------------------|------------------------|
---------------------|----------------------|------------------------|
---------4-----------|--5----6-----------4--|--L---------------------|
--2------3------2----|--4----5----2------3--|--L----2----2--2--2-----|
--0-------------0----|------------0---------|-------0----0--0--0-----|


                                                         PM PM PM     
  Q.     Q.     Q       Q    Q    Q.     E     Q    Q    E  E  E  E   
---------------------|----------------------|------------------------|
---------------------|----------------------|------------------------|
---------------------|----------------------|------------------------|
---------4-----------|--5----6-----------4--|--L---------------------|
--2------3------2----|--4----5----2------3--|--L----2----2--2--2-----|
--0-------------0----|------------0---------|-------0----0--0--0-----|


                                                         PM PM PM     
  Q.     Q.     Q       Q    Q    Q.     E     Q    Q    E  E  E  E   
---------------------|----------------------|------------------------|
---------------------|----------------------|------------------------|
---------------------|----------------------|------------------------|
---------4-----------|--5----6-----------4--|--L---------------------|
--2------3------2----|--4----5----2------3--|--L----2----2--2--2-----|
--0-------------0----|------------0---------|-------0----0--0--0-----|


                                                         PM PM PM     
  Q.     Q.     Q       Q    Q    Q.     E     Q    Q    E  E  E  E   
---------------------|----------------------|------------------------|
---------------------|----------------------|------------------------|
---------------------|----------------------|------------------------|
---------4-----------|--5----6-----------4--|--L---------------------|
--2------3------2----|--4----5----2------3--|--L----2----2--2--2-----|
--0-------------0----|------------0---------|-------0----0--0--0-----|


                                                         PM PM PM     
  Q.     Q.     Q       Q    Q    Q.     E     Q    Q    E  E  E  E   
---------------------|----------------------|------------------------|
---------------------|----------------------|------------------------|
---------------------|----------------------|------------------------|
---------4-----------|--5----6-----------4--|--L---------------------|
--2------3------2----|--4----5----2------3--|--L----2----2--2--2-----|
--0-------------0----|------------0---------|-------0----0--0--0-----|


                                                         PM PM PM     
  Q.     Q.     Q       Q    Q    Q.     E     Q    Q    E  E  E  E   
---------------------|----------------------|------------------------|
---------------------|----------------------|------------------------|
---------------------|----------------------|------------------------|
---------4-----------|--5----6-----------4--|--L---------------------|
--2------3------2----|--4----5----2------3--|--L----2----2--2--2-----|
--0-------------0----|------------0---------|-------0----0--0--0-----|


                                                         PM PM PM     
  Q.     Q.     Q       Q    Q    Q.     E     Q    Q    E  E  E  E   
---------------------|----------------------|------------------------|
---------------------|----------------------|------------------------|
---------------------|----------------------|------------------------|
---------4-----------|--5----6-----------4--|--L---------------------|
--2------3------2----|--4----5----2------3--|--L----2----2--2--2-----|
--0-------------0----|------------0---------|-------0----0--0--0-----|


                                                         PM PM PM     
  Q.     Q.     Q       Q    Q    Q.     E     Q    Q    E  E  E  E   
---------------------|----------------------|------------------------|
---------------------|----------------------|------------------------|
---------------------|----------------------|------------------------|
---------4-----------|--5----6-----------4--|--L---------------------|
--2------3------2----|--4----5----2------3--|--L----2----2--2--2-----|
--0-------------0----|------------0---------|-------0----0--0--0-----|


  W                   W                   W                   W                 
-------------------|-------------------|-------------------|-------------------|
-------------------|-------------------|-------------------|-------------------|
-------------------|-------------------|-------------------|-------------------|
-------------------|-------------------|-------------------|-------------------|
--4----------------|--L----------------|--8----------------|--L----------------|
--2----------------|--L----------------|--6----------------|--L----------------|


  W                   W                   W                   W                 
-------------------|-------------------|-------------------|-------------------|
-------------------|-------------------|-------------------|-------------------|
-------------------|-------------------|-------------------|-------------------|
-------------------|-------------------|-------------------|-------------------|
--2----------------|--L----------------|--L----------------|--L----------------|
--0----------------|--L----------------|--L----------------|--L----------------|


  W                   W                   W                   W                 
-------------------|-------------------|-------------------|-------------------|
-------------------|-------------------|-------------------|-------------------|
-------------------|-------------------|-------------------|-------------------|
-------------------|-------------------|-------------------|-------------------|
--4----------------|--L----------------|--8----------------|--L----------------|
--2----------------|--L----------------|--6----------------|--L----------------|


  W                   W                   W                   W                 
-------------------|-------------------|-------------------|-------------------|
-------------------|-------------------|-------------------|-------------------|
-------------------|-------------------|-------------------|-------------------|
--5----------------|--L----------------|--L----------------|--L----------------|
--3----------------|--L----------------|--L----------------|--L----------------|
--3----------------|--L----------------|--L----------------|--L----------------|


  W                   W                   W                   W                 
-------------------|-------------------|-------------------|-------------------|
-------------------|-------------------|-------------------|-------------------|
-------------------|-------------------|-------------------|-------------------|
-------------------|-------------------|-------------------|-------------------|
--4----------------|--L----------------|--8----------------|--L----------------|
--2----------------|--L----------------|--6----------------|--L----------------|


  W                   W                   W                   W                 
-------------------|-------------------|-------------------|-------------------|
-------------------|-------------------|-------------------|-------------------|
-------------------|-------------------|-------------------|-------------------|
-------------------|-------------------|-------------------|-------------------|
--2----------------|--L----------------|--L----------------|--L----------------|
--0----------------|--L----------------|--L----------------|--L----------------|


  W                   W                   W                   W                 
-------------------|-------------------|-------------------|-------------------|
-------------------|-------------------|-------------------|-------------------|
-------------------|-------------------|-------------------|-------------------|
-------------------|-------------------|-------------------|-------------------|
--4----------------|--L----------------|--8----------------|--L----------------|
--2----------------|--L----------------|--6----------------|--L----------------|


  W                   W                   W                   W                 
-------------------|-------------------|-------------------|-------------------|
-------------------|-------------------|-------------------|-------------------|
-------------------|-------------------|-------------------|-------------------|
--5----------------|--L----------------|--L----------------|--L----------------|
--3----------------|--L----------------|--L----------------|--L----------------|
--3----------------|--L----------------|--L----------------|--L----------------|


  W                   W                   W                   W                 
-------------------|-------------------|-------------------|-------------------|
-------------------|-------------------|-------------------|-------------------|
-------------------|-------------------|-------------------|-------------------|
-------------------|-------------------|-------------------|-------------------|
--4----------------|--L----------------|--8----------------|--L----------------|
--2----------------|--L----------------|--6----------------|--L----------------|


  W                   W                   W                   W                 
-------------------|-------------------|-------------------|-------------------|
-------------------|-------------------|-------------------|-------------------|
-------------------|-------------------|-------------------|-------------------|
-------------------|-------------------|-------------------|-------------------|
--2----------------|--L----------------|--L----------------|--L----------------|
--0----------------|--L----------------|--L----------------|--L----------------|


  W                   W                   W                   W                 
-------------------|-------------------|-------------------|-------------------|
-------------------|-------------------|-------------------|-------------------|
-------------------|-------------------|-------------------|-------------------|
-------------------|-------------------|-------------------|-------------------|
--4----------------|--L----------------|--8----------------|--L----------------|
--2----------------|--L----------------|--6----------------|--L----------------|


  W                   W                   W                   W                 
-------------------|-------------------|-------------------|-------------------|
-------------------|-------------------|-------------------|-------------------|
-------------------|-------------------|-------------------|-------------------|
--5----------------|--L----------------|--L----------------|--L----------------|
--3----------------|--L----------------|--L----------------|--L----------------|
--3----------------|--L----------------|--L----------------|--L----------------|


                                        PM   PM   PM   PM   PM    
  |----3----|    |----3----|       |----3----|    |----3----|     
  Q    Q    Q    Q    Q    Q       Q    Q    Q    Q    Q    Q     
--------------------------------|--------------------------------|
--------------------------------|--------------------------------|
--------------------------------|--------------------------------|
--5----5----5----5----5----5----|--5-----------------------------|
--4----4----4----4----4----4----|--4----2----2----2----2----2----|
--4----4----4----4----4----4----|--4----0----0----0----0----0----|


                                        PM   PM   PM   PM   PM    
  |----3----|    |----3----|       |----3----|    |----3----|     
  Q    Q    Q    Q    Q    Q       Q    Q    Q    Q    Q    Q     
--------------------------------|--------------------------------|
--------------------------------|--------------------------------|
--------------------------------|--------------------------------|
--5----5----5----5----5----5----|--5-----------------------------|
--4----4----4----4----4----4----|--4----2----2----2----2----2----|
--4----4----4----4----4----4----|--4----0----0----0----0----0----|


                                        PM   PM   PM   PM   PM    
  |----3----|    |----3----|       |----3----|    |----3----|     
  Q    Q    Q    Q    Q    Q       Q    Q    Q    Q    Q    Q     
--------------------------------|--------------------------------|
--------------------------------|--------------------------------|
--------------------------------|--------------------------------|
--5----5----5----5----5----5----|--5-----------------------------|
--4----4----4----4----4----4----|--4----2----2----2----2----2----|
--4----4----4----4----4----4----|--4----0----0----0----0----0----|


                                        PM   PM   PM   PM   PM    
  |----3----|    |----3----|       |----3----|    |----3----|     
  Q    Q    Q    Q    Q    Q       Q    Q    Q    Q    Q    Q     
--------------------------------|--------------------------------|
--------------------------------|--------------------------------|
--------------------------------|--------------------------------|
--5----5----5----5----5----5----|--5-----------------------------|
--4----4----4----4----4----4----|--4----2----2----2----2----2----|
--4----4----4----4----4----4----|--4----0----0----0----0----0----|


                                        PM   PM   PM   PM   PM    
  |----3----|    |----3----|       |----3----|    |----3----|     
  Q    Q    Q    Q    Q    Q       Q    Q    Q    Q    Q    Q     
--------------------------------|--------------------------------|
--------------------------------|--------------------------------|
--------------------------------|--------------------------------|
--5----5----5----5----5----5----|--5-----------------------------|
--4----4----4----4----4----4----|--4----2----2----2----2----2----|
--4----4----4----4----4----4----|--4----0----0----0----0----0----|


                                        PM   PM   PM   PM   PM    
  |----3----|    |----3----|       |----3----|    |----3----|     
  Q    Q    Q    Q    Q    Q       Q    Q    Q    Q    Q    Q     
--------------------------------|--------------------------------|
--------------------------------|--------------------------------|
--------------------------------|--------------------------------|
--5----5----5----5----5----5----|--5-----------------------------|
--4----4----4----4----4----4----|--4----2----2----2----2----2----|
--4----4----4----4----4----4----|--4----0----0----0----0----0----|


                                        PM   PM   PM   PM   PM    
  |----3----|    |----3----|       |----3----|    |----3----|     
  Q    Q    Q    Q    Q    Q       Q    Q    Q    Q    Q    Q     
--------------------------------|--------------------------------|
--------------------------------|--------------------------------|
--------------------------------|--------------------------------|
--5----5----5----5----5----5----|--5-----------------------------|
--4----4----4----4----4----4----|--4----2----2----2----2----2----|
--4----4----4----4----4----4----|--4----0----0----0----0----0----|


                                        PM   PM   PM   PM   PM    
  |----3----|    |----3----|       |----3----|    |----3----|     
  Q    Q    Q    Q    Q    Q       Q    Q    Q    Q    Q    Q     
--------------------------------|--------------------------------|
--------------------------------|--------------------------------|
--------------------------------|--------------------------------|
--5----5----5----5----5----5----|--5-----------------------------|
--4----4----4----4----4----4----|--4----2----2----2----2----2----|
--4----4----4----4----4----4----|--4----0----0----0----0----0----|


                                        PM   PM   PM   PM   PM    
  |----3----|    |----3----|       |----3----|    |----3----|     
  Q    Q    Q    Q    Q    Q       Q    Q    Q    Q    Q    Q     
--------------------------------|--------------------------------|
--------------------------------|--------------------------------|
--------------------------------|--------------------------------|
--5----5----5----5----5----5----|--5-----------------------------|
--4----4----4----4----4----4----|--4----2----2----2----2----2----|
--4----4----4----4----4----4----|--4----0----0----0----0----0----|


                                        PM   PM   PM   PM   PM    
  |----3----|    |----3----|       |----3----|    |----3----|     
  Q    Q    Q    Q    Q    Q       Q    Q    Q    Q    Q    Q     
--------------------------------|--------------------------------|
--------------------------------|--------------------------------|
--------------------------------|--------------------------------|
--5----5----5----5----5----5----|--5-----------------------------|
--4----4----4----4----4----4----|--4----2----2----2----2----2----|
--4----4----4----4----4----4----|--4----0----0----0----0----0----|


                                        PM   PM   PM   PM   PM    
  |----3----|    |----3----|       |----3----|    |----3----|     
  Q    Q    Q    Q    Q    Q       Q    Q    Q    Q    Q    Q     
--------------------------------|--------------------------------|
--------------------------------|--------------------------------|
--------------------------------|--------------------------------|
--5----5----5----5----5----5----|--5-----------------------------|
--4----4----4----4----4----4----|--4----2----2----2----2----2----|
--4----4----4----4----4----4----|--4----0----0----0----0----0----|


                                        PM   PM   PM   PM   PM    
  |----3----|    |----3----|       |----3----|    |----3----|     
  Q    Q    Q    Q    Q    Q       Q    Q    Q    Q    Q    Q     
--------------------------------|--------------------------------|
--------------------------------|--------------------------------|
--------------------------------|--------------------------------|
--5----5----5----5----5----5----|--5-----------------------------|
--4----4----4----4----4----4----|--4----2----2----2----2----2----|
--4----4----4----4----4----4----|--4----0----0----0----0----0----|


                                        PM   PM   PM   PM   PM    
  |----3----|    |----3----|       |----3----|    |----3----|     
  Q    Q    Q    Q    Q    Q       Q    Q    Q    Q    Q    Q     
--------------------------------|--------------------------------|
--------------------------------|--------------------------------|
--------------------------------|--------------------------------|
--5----5----5----5----5----5----|--5-----------------------------|
--4----4----4----4----4----4----|--4----2----2----2----2----2----|
--4----4----4----4----4----4----|--4----0----0----0----0----0----|


                                        PM   PM   PM   PM   PM    
  |----3----|    |----3----|       |----3----|    |----3----|     
  Q    Q    Q    Q    Q    Q       Q    Q    Q    Q    Q    Q     
--------------------------------|--------------------------------|
--------------------------------|--------------------------------|
--------------------------------|--------------------------------|
--5----5----5----5----5----5----|--5-----------------------------|
--4----4----4----4----4----4----|--4----2----2----2----2----2----|
--4----4----4----4----4----4----|--4----0----0----0----0----0----|


                                        PM   PM   PM   PM   PM    
  |----3----|    |----3----|       |----3----|    |----3----|     
  Q    Q    Q    Q    Q    Q       Q    Q    Q    Q    Q    Q     
--------------------------------|--------------------------------|
--------------------------------|--------------------------------|
--------------------------------|--------------------------------|
--5----5----5----5----5----5----|--5-----------------------------|
--4----4----4----4----4----4----|--4----2----2----2----2----2----|
--4----4----4----4----4----4----|--4----0----0----0----0----0----|


                                        PM   PM   PM   PM   PM    
  |----3----|    |----3----|       |----3----|    |----3----|     
  Q    Q    Q    Q    Q    Q       Q    Q    Q    Q    Q    Q     
--------------------------------|--------------------------------|
--------------------------------|--------------------------------|
--------------------------------|--------------------------------|
--5----5----5----5----5----5----|--5-----------------------------|
--4----4----4----4----4----4----|--4----2----2----2----2----2----|
--4----4----4----4----4----4----|--4----0----0----0----0----0----|


  3                  
  W.                 
-------------------||
-------------------||
-------------------||
-------------------||
-------------------||
-------------------||




Duration Legend
---------------
W - whole
H - half
Q - quarter
E - 8th
S - 16th
T - 32nd
X - 64th
. - note dotted
|-n-|  - n-tuplets


Tablature Legend
----------------
L - tied note
x - dead note
g - grace note
(n) - ghost note
> - accentuded note
NH - natural harmonic
AH - artificial harmonic
TH - tapped harmonic
SH - semi harmonic
PH - pitch harmonic
h - hammer on
p - pull off
b - bend
br - bendRelease
pb - preBend
pbr - preBendRelease
brb - bendReleaseBend
\n/ - tremolo bar dip
\n - tremolo bar dive
-/n - tremolo bar Release up
/n\ - tremolo bar inverted dip
/n - tremolo bar return
-\n - tremolo bar Release down
S - shift slide
s - legato slide
/ -  slide into from below or out of upwards
\ -  slide into from above or out of downwards
~ - vibrato
W - wide vibrato
tr - trill
TP - tremolo picking
T - tapping
S - slap
P - pop
< - fade in
^ - brush up
v - brush down
Tap to rate this tab
 
# A B C D E F G H I J K L M N O P Q R S T U V W X Y Z