Guitaretab - guitar tabs
Song name
# A B C D E F G H I J K L M N O P Q R S T U V W X Y Z

Red Hot Chili Peppers - How Strong tab

How Strong(B-side)
Red Hot Chili Peppers
Californication copyright:1999
Tabbed By: Alex Salazar
There are no guitar tabs for this song.
Note-Fill in between notes with dead notes where needed.Usually between all the
10's on the G string
Tuning-Standard
use a wah pedal

Intro to Chorus

e-------------------------------------------|
B-------------------------------------------|
G--------10-10-10----10-10----10-10----10^--|
D-----10----------10-------10-------10------|
A---8---------------------------------------|
E-8-----------------------------------------|

e-------------------------------------------|
B-------------------------------------------|
G--------10-10-10--10-10/12-10-101010/12----|
D-----10------------------------------------|
A---8---------------------------------------|
E-8-----------------------------------------|

Chorus

e----------------------------------|
B----------------------------------|
G--------10-10-10--10-10-10-10-----|
D-----10---------------------------|
A---8------------------------------|
E-8--------------------------------|

e----------------------------------|x2
B----------------------------------|
G--------10-10-10--10-10-10-1010---|
D-----10---------------------------|
A---8------------------------------|
E-8--------------------------------|

e----------------------------------|
B--------------------h------h------|
G--------10-10-10--10-12--10-12----|
D-----10---------------------------|
A---8------------------------------|
E-8--------------------------------|

Verse

e----------------------------------|
B----------------------------------|
G--------10-10-10-10---------------|
D-----10---------------------------|
A---8------------------------------|
E-8--------------------------------|

e----------------------------------|
B----------------------------------|
G--------10-10-10101010------------|
D-----10---------------------------|
A---8------------------------------|
E-8--------------------------------|

e----------------------------------|
B----------------------------------|
G--------10-10-10-10---------------|
D-----10---------------------------|
A---8------------------------------|
E-8--------------------------------|

e----------------------------------|
B----------------------------------|
G--------10-10/12-10-101010/12-----|
D-----10---------------------------|
A---8------------------------------|
E-8--------------------------------|

Chorus

e----------------------------------|
B----------------------------------|
G--------10-10-10-10--10-10-101010-|
D-----10---------------------------|
A---8------------------------------|
E-8--------------------------------|

e----------------------------------|
B----------------------------------|
G--------10-10-10-10--10-10-10-----|
D-----10---------------------------|
A---8------------------------------|
E-8--------------------------------|

Bridge

e----------------------------------|
B----------------------------------|
G-12--10--12--10--12--10-----------|
D-12--10--12--10--12--10--10-------|
A-10--8---10--8---10--8---10-------|
E-------------------------8--------|

Intro to Chorus

e-------------------------------------|
B-------------------------------------|
G--------10-10-10-10--10-10-10-10-----|
D-----10------------------------------|
A---8---------------------------------|
E-8-----------------------------------|

e-------------------------------------------|
B-------------------------------------------|
G--------10-10-10-10--10-10/12-10-101010/12-|
D-----10------------------------------------|
A---8---------------------------------------|
E-8-----------------------------------------|

Chorus

e-----------------------------------|
B-----------------------------------|
G--------10-10-10--10-10-10-10------|
D-----10----------------------------|
A---8-------------------------------|
E-8---------------------------------|
[ Tab from: http://www.guitaretab.com/r/red-hot-chili-peppers/109030.html ]
e-----------------------------------|
B-----------------------------------|
G--------10-10-10---10101010--------|
D-----10----------------------------|
A---8-------------------------------|
E-8---------------------------------|

e-----------------------------------|
B-----------------------------------|
G--------10-10-10--10-10-10-1010----|
D-----10----------------------------|
A---8-------------------------------|
E-8---------------------------------|

e-----------------------------------|
B-----------------------------------|
G--------10-10-10--10-1010----------|
D-----10----------------------------|
A---8-------------------------------|
E-8---------------------------------|

Verse

e----------------------------------|
B----------------------------------|
G--------10-10-10-10---------------|
D-----10---------------------------|
A---8------------------------------|
E-8--------------------------------|

e----------------------------------|
B----------------------------------|
G--------10-10-10101010------------|
D-----10---------------------------|
A---8------------------------------|
E-8--------------------------------|

e----------------------------------|
B----------------------------------|
G--------10-10-10-10---------------|
D-----10---------------------------|
A---8------------------------------|
E-8--------------------------------|

e----------------------------------|
B--------10-10----10-101010--------|
G--------10-10/12-10-101010/12-----|
D-----10---------------------------|
A---8------------------------------|
E-8--------------------------------|

Chorus

e-----------------------------------|x2
B-----------------------------------|
G--------10-10--10-10-10-10---------|
D-----10----------------------------|
A---8-------------------------------|
E-8---------------------------------|

Bridge

e----------------------------------|
B----------------------------------|
G-12--10--12--10--12--10-----------|
D-12--10--12--10--12--10--10-------|
A-10--8---10--8---10--8---10-------|
E-------------------------8--------|

Solo- with wah and distrotion

e-----------------------------------|
B-----------------------------------|
G-----------------------------------|
D-10--------10~--10-----------------|
A----(12)-----------(12)------------|
E----long---------------------------|
     time

Chorus
e-10~-------------------------------|x3
B-----------------------------------|
G-----------------------------------|
D-----------------------------------|
A-----------------------------------|
E-----------------------------------|

e-10^-keep repeating----------------|
B-----------------------------------|
G-----------------------------------|
D-----------------------------------|
A-----------------------------------|
E-----------------------------------|

Verse

e-10^ keep repeating----------------|
B-----------------------------------|
G-----------------------------------|
D-----------------------------------|
A-----------------------------------|
E-----------------------------------|

e-10-8---------------------------------|
B------10-8----------------------------|
G-----------10-------------------------|
D--------------12-10-------------------|
A--------------------12-10-------------|
E--------------------------------------|

Chorus
   h
e-8-10~-----------------------------|x4
B-----------------------------------|
G-----------------------------------|
D-----------------------------------|
A-----------------------------------|
E-----------------------------------|

Outro

e-----------------------------------|
B-----------------------------------|
G--------10-10-10-10--10-10-1010----|
D-----10----------------------------|
A---8-------------------------------|
E-8---------------------------------|

e-----------------------------------|
B-----------------------------------|
G--------10-10-10-10--10-10-10-10---|
D-----10----------------------------|
A---8-------------------------------|
E-8---------------------------------|

                 END
Please rate and comment.
Hope it helped.
Related for How Strong tab
×
How Strong