Song name
# A B C D E F G H I J K L M N O P Q R S T U V W X Y Z

Red Hot Chili Peppers - Show Me Your Soul tab

Show Me Your Soul Tab

INTRO:
E-|-------|--12-|--15--|
B-|-10----|--12-|--15--|
G-|-10----|-----|------|
D-|-10----|-----|------|
A-|-------|-----|------|
E-|-------|-----|------|


VERSE 1:
E-|-------------------------------------|
B-|-20--x--19--x--20--x--19--x--17--19--|
G-|-17--x--17--x--17--x--17--x--17--17--|
D-|-------------------------------------|
A-|-------------------------------------|
E-|-------------------------------------|

E-|---------------------------------|
B-|-20--x--19--x--20--x--19--x--17--|
G-|-17--x--17--x--17--x--17--x--17--|
D-|---------------------------------|
A-|---------------------------------|
E-|---------------------------------|


END VERSE 1:

E-|-20-20-20-20-20-20-20-20--|
B-|-19-19-19-19-19-19-19-19--|
G-|-19-19-19-19-19-19-19-19--|
D-|--------------------------|
A-|--------------------------|
E-|--------------------------|


2nd END VERSE 1:

E-|--15(f)---|
B-|----------|
G-|----------|
D-|----------|
A-|----------|
E-|----------|


VERSE PART 2:
E-|----------------|---------------------------|
B-|-5------5--5----|--5------x-x-x--5--5-------|
G-|-5------5--5----|--5------x-x-x--5--5-------|
D-|-5------5--5----|--5------x-x-x--5--5-------|
A-|----------------|---------------------------|
E-|----------------|---------------------------|


CHORUS:
E-|--------------------------------|--8--x-x-x-x--8/10/8--------------|
B-|----x-x-x-x---------------------|--8--x-x-x-x--8-------------------|
G-|-7--x-x-x-x--7/10/7-------------|----------------------------------|
D-|-7--x-x-x-x--7------------------|----------------------------------|
A-|--------------------------------|-----------------------------12---|
E-|---------------------------10---|----------------------------------|


END CHORUS:
E-|-3--|--1--|--6--|
B-|-3--|--1--|--6--|
G-|-3--|--2--|--7--|
D-|-5--|--3--|--8--|
A-|----|-----|-----|
E-|----|-----|-----|


INTERLUDE:
E-|----------------|-----------------|-----------------|-----------------|-----------------|
B-|-6-6----6-6-----|--6-6----6-6-----|--6-6----6-6-----|--6-6----6-6-----|--6-6----6-6-----|
G-|-5-5----5-5-----|--5-5----5-5-----|--5-5----5-5-----|--5-5----5-5-----|--5-5----5-5-----|
D-|-5-5----5-5-----|--5-5----5-5-----|--5-5----5-5-----|--5-5----5-5-----|--5-5----5-5-----|
A-|----------------|-----------------|-----------------|-----------------|-----------------|
E-|----------------|-----------------|-----------------|-----------------|-----------------|

E-|----------------|-----------------|-------------------------|
B-|-6-6----6-6-----|--6-6----6-6-----|--6-6-6-6-6-6-6-6--------|
G-|-5-5----5-5-----|--5-5----5-5-----|--5-5-5-5-5-5-5-5--------|
D-|-5-5----5-5-----|--5-5----5-5-----|--5-5-5-5-5-5-5-5--------|
A-|----------------|-----------------|-------------------------|
E-|----------------|-----------------|-------------------------|


SOLO 1:

main guitar:
E-|------------------------------*---------|---------------------------*---------------------|
B-|------------------------------*---------|---------------------------*---------------------|
G-|----------------------------------------|-------------------------------------------------|
D-|----------------------------------------|-------------------------------------------------|
A-|-(5)/7--5/7--4--5-----------------------|--(5)/7--5/7--4--5-------------------5-----------|
E-|-----------------------(4)/3----5-------|---------------------------5--3/5--/7-----7------|


guitar 2:
E-|-3-3-3-3-3-3-3-3--|--3-3-3-3-3-3-3-3--|--3-3-3-3-3-3-3-3--|-6-6-6-6-6-6-6-6--|
B-|-3-3-3-3-3-3-3-3--|--3-3-3-3-3-3-3-3--|--3-3-3-3-3-3-3-3--|-6-6-6-6-6-6-6-6--|
G-|------------------|-------------------|-------------------|------------------|
D-|------------------|-------------------|-------------------|------------------|
A-|-------*part 1----|-------*part 2-----|------*part 3------|-------*part 
4----|
E-|------------------|-------------------|-------------------|------------------|


END SOLO 1:
E-|-----------------------------------|-------------------|---------|
B-|-----------------------------------|-------------------|---------|
G-|-----------------------------------|-------------------|---------|
D-|-----------------------------------|-------------------|---------|
A-|-(5)/7--5/7--4--5------------------|--5----5--6--7-----|--15/----|
E-|-----------------------(4)/3--5----|-------------------|--15/----|


SOLO 2:

first part:
E-|-19/19(h)--19/20/19/17--|--19/19(h)---17(f)/17--16/16(h)--|
B-|------------------------|---------------------------------|
G-|------------------------|---------------------------------|
D-|------------------------|---------------------------------|
A-|------------------------|---------------------------------|
E-|------------------------|---------------------------------|


second part:
E-|---------------------------------------|---------------------------------------|
B-|-15-----------------x-x-x-x-x-x--------|--15----------------x-x-x-x-x-x--------|
G-|-----12-------------x-x-x-x-x-x--------|------12------------x-x-x-x-x-x--------|
D-|----------14(f)-----x-x-x-x-x-x--------|-----------14(f)----x-x-x-x-x-x--------|
A-|---------------------------------------|---------------------------------------|
E-|---------------------------------------|---------------------------------------|

E-|-----------------------------|-------------|--17(f)-----17(f)--17(f)-17(f)---17(f)-------17--|
B-|-----------------------15----|-x-x-x-x-x-x-|-------------------------------------------------|
G-|-14--11--14--11-------14(q)--|-x-x-x-x-x-x-|-------------------------------------------------|
D-|-----------------------------|-x-x-x-x-x-x-|-------------------------------------------------|
A-|-----------------------------|-------------|-------------------------------------------------|
E-|-----------------------------|-------------|-------------------------------------------------|

E-|--17/17(f)--17/15/17--x-x-x-x-x-x--|
B-|----------------------x-x-x-x-x-x--|
G-|----------------------x-x-x-x-x-x--|
D-|-----------------------------------|
A-|-----------------------------------|
E-|-----------------------------------|

E-|------------------------------------------|-------------------------------------------|
B-|------------------------------------------|-------------------------------------------|
G-|------------------------------------------|-------------------------------------------|
D-|------------------------------------------|-------------------------------------------|
A-|-12(h)/12/10/12/10------------------------|--12(h)/12/10/12/10------------------------|
E-|-------------------------12---3--/12--12--|--------------------------12---3--/12--12--|

E-|--------------------------------------------------------------------------|
B-|--------------------------------------------------------------------------|
G-|--------------------------------------------------------------------------|
D-|--------------------------------------------------------------------------|
A-|-12(h)/12/10/12/10-------12/10/12/10/12/10/12/10/12/10/12/10/12/10/12/10--|
E-|----------------------------12--------------------------------------------|

E-|---------------------------------|---------|--------------------------------|
B-|---------------------------------|---------|--------------------------------|
G-|---------------------------------|---------|--14/14(f)--/14--12--14--14-14--|
D-|-11/11(h)--x-x--12/12(h)--12-12--|-x-x-x-x-|--------------------------------|
A-|---------------x-x---------------|-x-x-x-x-|--------------------------------|
E-|---------------------------------|---------|--------------------------------|

E-|-----------------------------------------------------------------------------|
B-|-15-15-15-15-15-15-15-15-15-15-15-15-15-15-15-15-15-15-15-15-15-15-15-15-15--|
G-|-----------------------------------------------------------------------------|
D-|-----------------------------------------------------------------------------|
A-|-----------------------------------------------------------------------------|
E-|-----------------------------------------------------------------------------|


E-|-----------------------|
B-|-15-15-15-15-15-15-15--|
G-|-----------------------|
D-|-----------------------|
A-|-----------------------|
E-|-----------------------|

E-|-----------------------------------------------|
B-|-17----15----12-----------------------12-------|
G-|---------------------14----12----14------------|
D-|-------------------------------------------14--|
A-|-----------------------------------------------|
E-|-----------------------------------------------|

E-|---------------------------------------|
B-|---------------------------------------|
G-|---------------------------------------|
D-|---------------------------------------|
A-|-12(h)----12----10/12/10/12(h)--12(h)--|
E-|---------------------------------------|




----------------------------------------------------------------------------------



Format of the song:


- Intro.

- Verse 1 (4 times).

- End Verse.

(singing starts)

- Verse 1 (2 times).

- End Verse.

- Verse 2 (4 times).

- Chorus (3 times).

- End Chorus.


- Verse 1 (2 times).

(singing starts)

- Verse 1 (2 times).

- End Verse.

- Verse 2 (4 times).

- Chorus (3 times).

- End Chorus.


- Interlude.

- Solo 1 (3 times) - play the 3 different
parts, one after the other, at the *.

- End Solo 1.

- Verse 1 (2 times).

- 2nd End Verse 1.

(singing starts)

- Verse 1 (2 times).

- Verse 2 (4 times).

- Chorus (3 times).

- End Chorus.


- Interlude with First Part Solo 2.

- Solo 1 (14 times) with Second Part Solo 2.


(Fade out)

Tap to rate this tab
# A B C D E F G H I J K L M N O P Q R S T U V W X Y Z