Guitaretab - guitar tabs
Song name
# A B C D E F G H I J K L M N O P Q R S T U V W X Y Z

Red Hot Chili Peppers - Permutation tab

-------------------------------------------------------------------------------
                        Permutation – Red Hot Chili Peppers
-------------------------------------------------------------------------------
Tabbed by: iago
Email: chagoaz@hotmail.com

Tuning: standard

B-side
0:20
e|-------------------------------------------------------------3-------------|
B|-10-8-10----------10-8-10------------5------------5------------5-----5-----|
G|---------7b-5h7p5----------7b-5v-4h5---5-4h5v-4h5---4h5---4h5----4h5---4~~~|
D|---------------------------------------------------------------------------|
A|---------------------------------------------------------------------------|
E|---------------------------------------------------------------------------|
0:44
e|--------------------------3------------------------------------------------|
B|-----------3b-1-3-3-3p1-3b-r3p1-1-3-1-3bp1-3p1-----------------------------|
G|--4b-2-4-2---------------------2---------------2---------------------------|
D|-------------------------------------------------5h7-5--------------5h7----|
A|-------------------------------------------------------5h7p5---3/7---------|
E|-------------------------------------------------------------7-------------|
0:57
e|--5-8-5-7-5h7p5---5--------------------------------------------------------|
B|-5--------------8---8-5h8p5----5v-8b-------------------8-7-5-5h7p5---5-----|
G|5----------------------------7---7---7bp5-7bp5---5vx-5-------------7v-7bp5-|
D|-----------------------------------------------7---7----------------------7|
A|---------------------------------------------------------------------------|
E|---------------------------------------------------------------------------|
1:05
e|---------------------------------------------------------------------------|
B|----8----------------------------------------------------------------------|
G|5-7b-r7p5----5-7-7bp5---5-7-7bp5---5-7-7bp5---5-7-7bp5---5-7-7bp5---5-7bp5-|
D|----------7-7----------7----------7----------7----------7----------7-------|
A|---------------------------------------------------------------------------|
E|---------------------------------------------------------------------------|

e|----------------------------------------------------------------|---------|
B|----------------------------------------------------------------|---hard--|
G|--5-7-7bp5---5-7-7bp5---5-7-7bp5---5-7-7bp5---5-7-7bp5---5-7bp5-|-----to--|
D|-7----------7----------7----------7----------7----------7-----------------|understand
A|----------------------------------------------------------------|---------|
E|----------------------------------------------------------------|---------|

e|-99999999-1212121212121212-151515151515-171717171717-------------------------|
B|-99999999-1212121212121212-151515151515-171717171717-------------------------|
G|-99999999-1212121212121212-151515151515-171717171717—7b-5-7-5-7-5-7-5-7-5----|
D|--------I'm not to sure about this part--------------------------------------|
A|-----------------------------------------------------------------------------|
E|-----------------------------------------------------------------------------|

e|--------------------------------------------5---5-5------5---5-5/7---------|
B|--------------------------------------------5---5-5------6---6-6/8---------|
G|-7b-5-7-5-7bp5---7b-------7b----------------5---5-5------5---5-5/7---------|
D|---------------7----7-5-7----7~~------------7---7-7------7---7-7/9---------|
A|---------------------------------~5b-3h5----x---x-x--8-8-8-8-8-8/10--------|
E|-----------------------------------------5~~5-5-5-5------------------------|
T= Thumb sixth string                      T  * * * *
e|-------------------------------5-8p5---5h8p5---5h8p5---5h8p5--5-8-8/10-----|
B|---5-5-5-5h6p5---------------5-------5-------5-------5-------5-------------|
G|---------------5-7b-5-7-5-5------------------------------------------------|
D|---------------------------------------------------------------------------|
A|---------------------------------------------------------------------------|
E|-5-------------------------------------------------------------------------|
   T

[ Tab from: http://www.guitaretab.com/r/red-hot-chili-peppers/110399.html ]
e|-10-10/12-12-12b-12-10-8-10p8-8-8-10/12-12b-12-10-12-10h12p10-8-10-10b-8---|
B|---------------------------------------------------------------------------|
G|---------------------------------------------------------------------------|
D|---------------------------------------------------------------------------|
A|---------------------------------------------------------------------------|
E|---------------------------------------------------------------------------|


e|-7-8-7h8p7-5-7-5h7p5---5------7b-5-7b-5-7b-5-5-7/12-12/15-15/17-17h20-17-17|
B|---------------------8v--8b-5----------------------------------------------|
G|---------------------------------------------------------------------------|
D|---------------------------------------------------------------------------|
A|---------------------------------------------------------------------------|
E|---------------------------------------------------------------------------|

e|-17-20-17-15-17-15h17p15----15-17----------------------151515-------151515-|
B|-------------------------17-------17p15----15----15/17--------15/17--------|
G|----------------------------------------17----17---------------------------|
D|---------------------------------------------------------------------------|
A|---------------------------------------------------------------------------|
E|---------------------------------------------------------------------------|

e|-------151515--------------------------------------------------------------|
B|-15/17---------17p15-------------------------------------------------------|
G|---------------------17-17-14-----14-17b-17b-17-14v12h14-14-12h14-14-12h14-|
D|-------------------------------17------------------------------------------|
A|---------------------------------------------------------------------------|
E|---------------------------------------------------------------------------|

e|-----------------------------------------------------------------------------|
B|-----------------------------------------------------------------------------|
G|14-17p14v14-17p14v14-17p14v14-17p14v14--14p12-14p12-14p12-14p12-14p12-14p12--|
D|-----------------------------------------------------------------------------|
A|-------------------------------------------(this in a dirty way)-------------|
E|-----------------------------------------------------------------------------|

e|--------------------------x--x--12-x--x--x--1212121212---------------------|
B|--------------------------x--x--12-x--x--x--1212121212---------------------|
G|-14p12-14p12-14p12-14p12--x--x--12-x--x--x--1212121212-12-14-14-14-14-14---|
D|--------------------------14-14-12-14-14-14-1212121212---------------------|
A|--------------------------x--x-----x--x--x---------------------------------|
E|---------------------------------------------------------------------------|

e|-1212121212-xx17xxx17xxx17xxx17x17x17--------------------------------------|
B|-1212121212-xx17xxx17xxx17xxx17x17x17-15p13--15p13--15p13-15p13-15p13-15p13|
G|-1212121212-xx17xxx17xxx17xxx17x17x17--------------------------------------|
D|-1212121212-xx17xxx17xxx17xxx17x17x17--------------------------------------|
A|---------------------------------------------------------------------------|
E|---------------------------------------------------------------------------|

e|-----------------------------------------------------------------------------|
B|-----------------------------------------------------------------------------|
G|-12h14-12h14-12h14-12h14-12h14--------------12h1414141414141414141414--------|
D|--------------------------------14-14-14p12----(this part twice)-------------|
A|-----------------------------------------------------------------------------|
E|-----------------------------------------------------------------------------|

e|--12121212121212121212121212121212--13131313131313131313--1212121212121212-|
B|--13131313131313131313131313131313--15151515151515151515--1313131313131313-|
G|--14141414141414141414141414141414--14141414141414141414--1414141414141414-|
D|---------------------------------------------------------------------------|
A|---------------------------------------------------------------------------|
E|---------------------------------------------------------------------------|
 Sorry of this last part isn’t very accurate (the timing and the chords)
e|--1313131313131313--12-------------------------------------------------------|
B|--1515151515151515--13-----here the tone gets lower and lower----------------|
G|--1414141414141414--14-------------------------------------------------------|
D|-----------------------------------------------------------------------------|
A|-----------------------------------------------------------------------------|
E|-----------------------------------------------------------------------------|
Related for Permutation tab