Song name
# A B C D E F G H I J K L M N O P Q R S T U V W X Y Z

Red Hot Chili Peppers - Yertle Trilogy tab

"Yertle Trilogy/Cosmic Slop"
By: The red hot chili peppers
Live at nozems/1999 era
tabbed by: Colin S.
Email:  mr.sully@sbcglobal.net


Play Yertle the Turtle, then freaky styley, then this

Part 1
e|---------------------------------------------------------------------------|
B|---------------------------------------------------------------------------|
G|---------------------------------------------------------------------------|
D|---------------------------------------------------------------------------|
A|--0-0-0-0-0-0-0-0-0-0-0-0-0-0-0-0-0-0-0-0-0-0-0-0--------------------------|
E|---------------------------------------------------------------------------|
alternative pick that string for a while

Part 2
e|---------------------------------------------------------------------------|
B|---------------------------------------------------------------------------|
G|---------------------------------------------------------------------------|
D|--------------------------------------0--3--7--5---then-repeat-as-need-----|
A|---3--0---0--3-0-3-0-3-0-3--0--3--0----------------0-----------------------|
E|---------------------------------------------------------------------------|
  "I can hear my momma call, i can hear my momma call"

Part 3 (exact same riff as part 2 only palm muted)
e|--------------------------------------------------------------------------|
B|---Palm muted-------------------------------------------------------------|
G|--------------------------------------------------------------------------|
D|-------------------------------------0--3--7--5-----then-repeat-as-need---|
A|---3--0---0--3-0-3-0-3-0-3--0-3-0-----------------0-----------------------|
E|--------------------------------------------------------------------------|
   "Space, people, a universial love"

Part 4
e|---------------------------------------------------------------------------|
B|---------------------------------------------------------------------------|
G|---------------------------------------------------------------------------|
D|--------------------------------------0--3--7--5---then-repeat-as-need-----|
A|---3--0---0--3-0-3-0-3-0-3--0--3--0----------------0-----------------------|
E|---------------------------------------------------------------------------|
   "Would you like to dance with me, were doin the cosmic slop"

Part 5 (Some what of a breakdown) -play this riff between the next 3.
e|---------------------------------------------------------------------------|
B|---------------------------------------------------------------------------|
G|----2--2--2--2--2----------------------------------------------------------|
D|----2--2--2--2--2----------------------------------------------------------|
A|----0--0--0--0--0----------------------------------------------------------|
E|---------------------------------------------------------------------------|


Part 6 (Taken from when played at Nozems a go go)
e|---------------------------------------------------------------------------|
B|---------------------------------------------------------------------------|
G|----2--5--4------2-2--5-5--4~------0-2-0---2--5--4-------2-2--5-5--4---7^-5|
D|------------2-2-------------------------------------2-2--------------------|
A|---------------------------------------------------------------------------|
E|---------------------------------------------------------------------------|
   "Were gonna drop that bomb all over you, were gonna drop that bomb on you"

Part 7 (Untitled #2 by john frusciante from the niandra days)
E|-----12------------------------|-----------------------------|
B|--------------12-----12--------|----13\10-----10------10-----|
G|-------------------------------|-----------------------------|
D|-10----------------------------|-----------------------------|
A|----------10-----10------------|-12-------8-------8----------|
E|-------------------------------|-----------------------------|
                                      G        C
E|-------------------------------|-----------------------------|
B|-8----------------5---------3--|----8------------------------|
G|----9----------5---------4-----|----7--------9---------------|
D|-------------------------------|----9--------10--------------|
A|-------------------------------|----10-------10--------------|
E|-8----------5---------3--------|-------------8---------------|


Part 8 (the last part is the ending of "Cholly" by Funkadelic) -repeat as needed
e|---------------------------------------------------------------------------|
B|---------------------------------------------------------------------------|
G|--------------------------17-16----16-17-21-19-17------17------------------|
D|------------17-19-17------------19----------------16---17------------------|
A|---17-19-------------19----------------------------------------------------|
E|---------------------------------------------------------------------------|

-Colin S.
Tap to rate this tab
 
# A B C D E F G H I J K L M N O P Q R S T U V W X Y Z