Guitaretab - guitar tabs
Song name
# A B C D E F G H I J K L M N O P Q R S T U V W X Y Z

Red Hot Chili Peppers - Parallel Universe Live tab

-------------------------------------------------------------------------------
                       Parallel Universe (Live at Slane Castle - Red Hot Chili Peppers
-------------------------------------------------------------------------------
Tabbed by: V-Mac 
Email: italiansrule513@yahoo.com

Tuning: Standard

e|-------------------------------------|
B|-------------------------------------|
G|17p16-17p16-17p16--17p16-17p16---|
D|------17-----17-----17-----17-----17-|
A|-------------------------------------|
E|-------------------------------------|

e|-----------------------15-15-1515------------------------------------|
B|-----------------------------------18-16-15-15b17r1515b17r15-15-15--|
G|-17-17b19r17-17-17-17-----------------------------------------------|
D|----------------------------------------------------------------------|
A|----------------------------------------------------------------------|
E|----------------------------------------------------------------------|

e|------------15-------------------------------------15----------|
B|-15-15-15-----18-16-1515b17-17-17r1515b17-15-----16-15----|
G|---------------------------------------------------------------|
D|---------------------------------------------------------------|
A|---------------------------------------------------------------|
E|---------------------------------------------------------------|

e|---------------------------------------------------------------------------|
B|-15h16h18-15h16h18-15h16h18-15h16h18-15h16h18-15h16h18-15h16h18--15h16h18--|
G|---------------------------------------------------------------------------|
D|---------------------------------------------------------------------------|
A|---------------------------------------------------------------------------|
E|---------------------------------------------------------------------------|

e|-17p15-17-17p15--17p15-17-17p15--17p15-17-17p15--17p15-17-17p15--------|
B|---------------------------------------------------------------------------|
G|---------------------------------------------------------------------------|
D|---------------------------------------------------------------------------|
A|---------------------------------------------------------------------------|
E|---------------------------------------------------------------------------|
[ Tab from: http://www.guitaretab.com/r/red-hot-chili-peppers/115548.html ]
e|-15b17-15b17-15b18--15b18-15--15b18-15--15b18-15--15b18-------------------|
B|---------------------------------------------------------------------------|
G|---------------------------------------------------------------------------|
D|---------------------------------------------------------------------------|
A|---------------------------------------------------------------------------|
E|---------------------------------------------------------------------------|

e|-15h17p15-13h15p13-11h13p11-10h11p10-8h10p8-6h8p6-----|
B|------------------------------------------------------|
G|------------------------------------------------------|
D|------------------------------------------------------|
A|------------------------------------------------------|
E|------------------------------------------------------|

 (Strum an open G String while playing this to get that distorted sound)
e|---------------------------------------------------------------------------|
B|-8-8-8-8-8b10--8-8-8-8-8b10--8-8-8-8-8b10--8-8-8-8-8b10--8-8-8-8-8b10------|
G|---------0000----------0000----------0000----------0000----------0000------|
D|---------------------------------------------------------------------------|
A|---------------------------------------------------------------------------|
E|---------------------------------------------------------------------------|

e|-13b15-13p11h13p11h13b15--13p11h13p11h13b15-13p11h13p11h13b15-------------|
B|---------------------------------------------------------------------------|
G|---------------------------------------------------------------------------|
D|---------------------------------------------------------------------------|
A|---------------------------------------------------------------------------|
E|---------------------------------------------------------------------------|




e|-18p15--18p15--18p15--18p15--18p15--18p15--18p15--18p15--18p15--18p15------|
B|------18-----18-----18-----18-----18-----18-----18-----18-----18-----18----|
G|---------------------------------------------------------------------------|
D|---------------------------------------------------------------------------|
A|---------------------------------------------------------------------------|
E|---------------------------------------------------------------------------|

e|-20b22-r20--20b22-r20---21b23-21b23--21-19-21b23r21-20--------------|
B|---------------------------------------------------------------------------|
G|---------------------------------------------------------------------------|
D|---------------------------------------------------------------------------|
A|---------------------------------------------------------------------------|
E|---------------------------------------------------------------------------|

| /  slide up
| \  slide down
| h  hammer-on
| p  pull-off
| ~  vibrato
| +  harmonic
| x  Mute note
===============================================================================

Related for Parallel Universe Live tab