Song name
# A B C D E F G H I J K L M N O P Q R S T U V W X Y Z

Red Hot Chili Peppers - Nevermind tab

Help us improve GuitareTab! Take a short survey!
Nevermind
Red Hot Chili Peppers
Freaky Styley [1985]

This Song is really easy to play but there is no decent tabs for it

Verse [play twenty times]

e--10-x---10-10--x------|
B--8--x---8--8---x------|
G--7--x---7--7---x------|
D-----------------------|
A-----------------------|
E-----------------------|


Chorus

e-------------------------------------------------------------|
B--7--7--7--7----7--7--7--7----7--7--7--7----7--7--7~---------|
G--7--7--7--7----7--7--7--7----7--7--7--7----7--7--7~---------|
D--6--6--6--6----6--6--6--6----6--6--6--6----6--6--6~---------|
A--7--7--7--7----7--7--7--7----7--7--7--7----7--7--7~---------|
E-------------------------------------------------------------|

e-------------------------------------------------------------|
B--7--7--7--7----7--7--7--7----7--7--7--7----7--5--6~---------|
G--7--7--7--7----7--7--7--7----7--7--7--7----7--5--6~---------|
D--6--6--6--6----6--6--6--6----6--6--6--6----6--4--5~---------|
A--7--7--7--7----7--7--7--7----7--7--7--7----7--5--6~---------|
E-------------------------------------------------------------|


Solo

e-----------------------------------------------------------------------------------------------------------------------------------------|
B-----------------------------------------------------------------------------------------------------------------------------------------|
G--12------12bu(14)~~~~---------------12--------------------------------------------------------------------------------------------------|
D------14------------------ph14~~~~-------14--14------------12-----------------------12------------------------12----------------14~~~~~--|
A--------------------------------------------------12-13-14----14-13-12-10--12-13-14----14-13-12-10--12-13-14-----14-13-12-10-------------|
E-----------------------------------------------------------------------------------------------------------------------------------------|
Related for Nevermind tab