Song name
# A B C D E F G H I J K L M N O P Q R S T U V W X Y Z

Red Hot Chili Peppers - Around The World tab

E||-12--12--12--12--12--12--12--12-|
B||-12--12--12--12--12--12--12--12-|
G||-14b-14b-14b-14b-14b-14b-14b-14b|
D||--------------------------------|2 x
A||--------------------------------|
E||--------------------------------|

Whoa_______________________________
E||-12--12--12--12--12--12--12--12-|
B||-12--12--12--12--12--12--12--12-|
G||-14b-14b-14b-14b-14b-14b-14b-14b|4x
D||--------------------------------|
A||--------------------------------|
E||--------------------------------|

Riff:
E||-----------------------------|
B||-----------------------------|
G||-----------------------------|
D||-3-5-3-5-3-5-----3-5-3-5-----|2x
A||---------------5-----------5-|
E||-----------------------------|

All around the world We could make time 
E||-----------------------------|
B||-----------------------------|
G||-----------------------------|
D||-3-5-3-5-3-5-----3-5-3-5-----|
A||---------------5-----------5-|
E||-----------------------------|
Rompin' and a stompin''Cause I'm in my prime
E||-----------------------------|
B||-----------------------------|
G||-----------------------------|
D||-3-5-3-5-3-5-----3-5-3-5-----|
A||---------------5-----------5-|
E||-----------------------------|

Born in the north 
And sworn to entertain ya 
'Cause I'm down for 
The state of Pennsylvania 
I try not to whine 
But I must warn ya 
'Bout the girls 
From California 
Alabama baby 
Said hallelujah 
Good god girl 
I wish I knew ya 

Ab		Gm
I know I know for sure 
Fm				Cm
That life is beautiful around the world 



Ab		Gm
I know I know it's you 
Fm				Cm
You say hello and then I say I do 

Riff
Come back baby 
'Cause I'd like to say 
I've been around the world 
Back from Bombay 
Fox hole love 
Pie in your face 
Living in and out 
Of a big fat suitcase 
Bonafide ride 
Step aside my Johnson 
Yes I could 
In the woods of Wisconsin 
Wake up the cake 
It's a lake she's kissin' me 
As they do 
When they do in Sicily 

Ab		Gm
I know I know for sure 
Fm				Cm
That life is beautiful around the world 
Ab		Gm
I know I know it's you 
Fm				Cm
You say hello and then I say I do 

E||-12--12--12--12--12--12--12--12-|
B||-12--12--12--12--12--12--12--12-|
G||-14b-14b-14b-14b-14b-14b-14b-14b|
D||--------------------------------|3x
A||--------------------------------|
E||--------------------------------|

Whoa_______________________________
E||-12--12--12--12--12--12--12--12-|
B||-12--12--12--12--12--12--12--12-|
G||-14b-14b-14b-14b-14b-14b-14b-14b|5x
D||--------------------------------|
A||--------------------------------|
E||--------------------------------|

Riff
Where you want to go 
Who you want to be 
What you want to do 
Just come with me 
I saw God 
And I saw the fountains 
You and me girl 
Sittin' in the Swiss mountains 
Me Oh My O 
Me and Guy O 
Freer than a bird 
'Cause we're rockin' Ohio 
Around the world 
I feel dutiful 
Take a wife 
'Cause life is beautiful 

Ab		Gm
I know I know for sure 
Fm				Cm
$%%&*^&^$#$@##%&^*(*(&%%^$%$ 
Ab		Gm
I know I know it's you 
Fm				Cm
&*%^$#@#$%^&*&()**%%$#@#$%*% 

Ab		
Mother Russia do not suffer 
Gm
I know you're bold enough 
Fm
I've been around the world 
Cm
And I have seen your love 
Ab		Gm
I know I know it's you 
Fm				Cm
You say hello then I say I do 

Outro:
E||-13-13-13-13-13-13-13-13-|-13-13-13-13-13-13-13-13-|
B||-15-15-15-15-15-15-15-13-|-15-15-15-15-15-15-15-15-|
G||-14-14-14-14-14-14-14-14-|-14-14-14-14-14-14-14-14-|
D||-------------------------|-------------------------|
A||-------------------------|-------------------------|
E||-------------------------|-------------------------|

E||-15-15-15-15-15-15-15-15-|-17-17-17-17-17-17-17-17-|
B||-17-17-17-17-17-17-17-17-|-18-18-18-18-18-18-18-18-|
G||-14-14-14-14-14-14-14-14-|-15-15-15-15-15-15-15-15-|
D||-------------------------|-------------------------|
A||-------------------------|-------------------------|
E||-------------------------|-------------------------|

3x outro. 
Tap to rate this tab
# A B C D E F G H I J K L M N O P Q R S T U V W X Y Z