Guitaretab - guitar tabs
Song name
# A B C D E F G H I J K L M N O P Q R S T U V W X Y Z

Red Hot Chili Peppers - Tearjerker tab

---------------------------------------------------------------------------
		     Tearjerker Ė Red Hot Chili Peppers
---------------------------------------------------------------------------
Tabbed by: _Ruppi_
Email: guitar@ruppi.de.tk

Tuning: Standard Tuning


The intro before the proper intro is just a D played in different variations:
(They play it different on every record. So I didnít tab it)
Use these Chords and use a second guitar playing riffs from the solo:

e|-----0------2-----3------5-------|
B|-----3------3-----3------3-------|
G|-----2------2-----2------2-------|
D|-----0------0-----0------0-------|
A|-----x------x-----x------x-------|
E|-----x------x-----x------x-------|


Intro:
(Chords)

|  D  |  F#m  |  G   |  A   |
|  D  |  F#m  |  Bm  |  Bm  ||

play the first Bm already on the last beat of F#m. Listen to the text they sing.  



Verse:
(Chords)

|  D  |  F#m  |  G   |  A   |
|  D  |  F#m  |  Bm  |  Bm :|

Itís the same as the Intro-Part


Interlude:
(Chords)

Rhythm:
  |  |  |  |    |  |  |  |    |  |  |  |    |  |  |  |
  /  /  /  /____/  /  /  /    /  /  /  /____/  /  /  /

| A  A  A Bb | Bb Bb Bb Bb  | A  A  A Bb | Bb Bb Bb Bb |


As Tab:

e|-0--0--0---|--------------|
B|-2--2--2/3-|-3--3--3--3---|
G|-2--2--2/3-|-3--3--3--3---|  2x
D|-2--2--2/3-|-3--3--3--3---|
A|-0--0--0---|--------------|
E|-----------|--------------|




Chorus:
(Chords, Same rhythm as interlude)

|  C  |  C   |  Em  |  Em  |
|  C  |  C   |  Em  |  Em  |
|  C  |  C   |  Em  |  Em  |
|  Em |  Em  |  F#m |  F#m |
|  Em |  F#m |
|  A  |  Bb  |  A   |  Bb  |


Solo:

[ Tab from: http://www.guitaretab.com/r/red-hot-chili-peppers/15719.html ]
e|------------------------------------------------------------------------|
B|--5--5--5/7--7--7--7h8--8--8--8/7--7--7--7h8--8--8--8h10--10--10--10p8--|
G|------------------------------------------------------------------------|
D|------------------------------------------------------------------------|
A|------------------------------------------------------------------------|
E|------------------------------------------------------------------------|


e|------------------------------------------------------------------------|
B|--8--8--8p7--7--7--7/5--5--5--------------------------------------------|
G|------------------------------7--7--7--6--4--4h6--4---4--4--4h6--6--6---|
D|------------------------------------------------------------------------|
A|------------------------------------------------------------------------|
E|------------------------------------------------------------------------|


e|------------------------------------------------------------------------|
B|-----------------6h7p5--------------------------------------------------|
G|--6h7--7--7--7---------7-6-7---4h6p4------------------------------------|
D|-------------------------------------7--5--5h7p5--4--5--4------4h5p4----|
A|-----------------------------------------------------------5----------5-|
E|------------------------------------------------------------------------|


e|-----------------------------10-----------------------------------------|
B|----8h10p8------------8--10--------13~~~~-------------------------------|
G|-----------10--7--10----------------------------------------------------|
D|------------------------------------------------------------------------|
A|------------------------------------------------------------------------|
E|------------------------------------------------------------------------|


Outro:

|  D  |  D  |  D  |  D  |

|:  Bb  |  C  |  D  |  D  :|    Repeat: 4x


Thatís it.
A good song. I like it.
Problems, Corrections please e-mail me. (guitar@ruppi.de.tk)
Related for Tearjerker tab